Acordes de Guitarra » R »la Renga » El camino del deshielo (Tab)

El camino del deshielo
la Renga

Letras, Acordes y Tabs para Guitarra, Bajo y Ukulele

  • Intro / Versos / Solo de saxo
    
    G-----------------------
    D-----------------------
    A---1-3-1----1-33-1-----
    E-3-------33------------
    
    'en el auto de papá...'
    
    G--------------------
    D--------------------
    A--------------------
    E--3--3--3s15s3------
    
    Estribillo 'Y bajo a mil...' (Rapido)
    
    G------------------------
    D----3-5-6-5-3-----------
    A--5-----------5---------
    E------------------------
    
    'a mi lado...'
    
    G---------------
    D---------------
    A-------5-------
    E--5555---------
    
    Solo de guitarra
    
    G-----------------------
    D-----------------------
    A---1-3-1----1-33-1-----
    E-3-------33------------(x12)
    
    G-----------------
    D-----------------
    A---1-4-3-1-------
    E-3---------3-3---(x3)
    
    G-----------------
    D-----------------
    A---1-4-3-1--5----
    E-3---------------
    
    Intervalo con base de estribillo
    
    G------------------------
    D----3-5-6-5-3-----------
    A--5-----------5---------
    E------------------------(x27)
    
    engancha así:
    
    G----------------
    D----3-5-
  • +
    ¡Colabora con nosotros!
    Envíanos tu versión de esta canción






[El camino del deshielo chords][El camino del deshielo cifra]
© LaCuerda.net · aviso legal · privacidad · es · en · pt · contacto
DINAMICO