Acordes de Guitarra » R »la Renga » Cuando vendrán (Tab)

Cuando vendrán
la Renga

Letras, Acordes y Tabs para Guitarra, Bajo y Ukulele

  •         F#         A
    --------------------------------
    --------------------------------
    -------------------2------------
    --------4----------2------------
    --4-3-0-4----4-3-2-0------------
    --------2-----------------------
    
    Repite este RiFF 4 veces y sale:
    
     A                                   B
    Es que la muerte est  tan segura de vencer
             G            D        A
    que nos da toda una vida de ventaja.
                A                        B
    Tu empresa lider funciona bien en el caos
        G                 D               A
    inventando analg'sicos para poder seguir.
                 A
    Cuando el mundo no tiene respuesta
    
  •            FA#5                     LA5                          FA#5        LA5
    e|--------------------------|-------------------------------|-----------|-----------------------|
    B|--------------------------|-------------------------------|-----------|-----------------5-----|
    G|--------------------------|--------(2)-2-------------2~-2-|------FA#5-|--------(2)-222--5-(2)-|
    D|--------(4)---------------|--------(2)-2--4p2--2--2h4---2-|-----------|--------(2)-222----(2)-|
    A|--4p3-0-(4)-4-x-4-4-x--4-4|-4p3-0--(0)-0--0p0--0----------|4p3-0------|-4p3-0--(0)-000----(0)-|
    E|--------(2)-2-x-2-2-x--2-2|-------------------------------|-----------|-----------------------|
    
    Y despues
               FA#5                     LA5                          FA#5                     LA5
    e|--------------------------|------------------------------|------------------------|-----------|
    B|--------------------------|------------------------------|------------------------|-----------|
    G|--------------------------|--------(2)-2---------------2~|------------------------|-------2--#|
    D|--------(4)---------------|--------(2)-2--4p2--2--2h4----|------(4)---------------|-------2---|
    A|--4p3-0-(4)-4-x-4-4-x--4-4|-4p3-0--(0)-0--0p0--0---------|4p3-0-(4)-4-x-4-4-x-4-4-|4p3-0--0---|
    E|--------(2)-2-x-2-2-x--2-2|------------------------------|------(2)-2-x-2-2-x-2-2-|-----------|
    
    BAJO:                     FA#           LA              FA#                   LA
    G|--------|------|-------------|-------------|------------------------|-------------------------|
    D|---#----|---#--|-------------|-------------|------------------------|-------------------------|
    
  • Intro
    
    4--------2-2-2--------5-5-5--------2-2-2--------5-5-5-
    3--5-3-2--------5-3-2--------5-3-2--------5-3-2-------
    2-----------------------------------------------------
    1-----------------------------------------------------
    
    Verso
    
    4----------------------------------5-5----------------
    3--0-0--0-0--2-2--2-2-3-3-4-4-5-5------7-7--0-0-------
    2-----------------------------------------------------
    1-----------------------------------------------------
    Repite tonda la cancion
    
    Y cuando dice 'Cuan vendran los dias...'
    
    4-0-0-0---5-5-5---0-0-0---5-5-5---0-0-0----------5-5-5
    3-----------------------------------------5-5-5-------
    2-----------------------------------------------------
    1-----------------------------------------------------
    
    
    'La Secta rn'r' A favor del rock urbano
    
    Leandro
  • +
    ¡Colabora con nosotros!
    Envíanos tu versión de esta canción

Letra de Cuando vendrán
Repite este RiFF 4 veces y sale:
Es que la muerte est tan segura de vencer
que nos da toda una vida de ventaja.
Tu empresa lider funciona bien en el caos
inventando analg'sicos para poder seguir.
Cuando el mundo no tiene respuesta
o se vuelve incomprensible
yo sigo ac , insoportablemente vivo.
Repite el RiFF de la iNTRo 2 veces
Si del principio hubiera aprendido a ser un animal
hoy tendria un instinto noble a cambio de esta pena
y si la ruta me va dejando sin aliento
ser que un buscador nunca llegar a destino.
Cuando el mundo no tiene respuesta
o se vuelve incomprensible
recuerda que un guerrero
toma todo como un desaf­o
Riff x2
Cu ndo vendr n los d­as de sol
y no tener esa nube en el cielo.
Cu ndo vendr n las noches de estrellas
y no tener m s mi casa ese techo.
Cu ndo vendr la canci½n primitiva
y no tener m s sobre mi coraz½n una cabeza.
Estribillo
Riff 2
Riff 2 x4
Fin.
El Peludo de Moron




[Cuando vendrán chords][Cuando vendrán cifra]
© LaCuerda.net · aviso legal · privacidad · es · en · pt · contacto