Acordes de Guitarra » R »la Renga » Blues de Bolivia (Tab)

Blues de Bolivia
la Renga

Letras, Acordes y Tabs para Guitarra, Bajo y Ukulele

  •             Eb          Db          Ab
    Cocaína, cocaína, ya me voy para Bolivia,
                                               ¡ X 2
                Eb          Db            Ab   ¡
    cocaína marihuana me espera una boliviana../
    
    
                     Eb              Db           Ab
    Cuando vaya pa’bolivia por las calles voy a andar
                     Eb              Db           Ab
    Quizás entre en un cine y después entre en un bar.
                        Eb         Db         Ab
    Seré amable con la gente, les daré mi corazón
                            Eb           Db           Ab
    a cada fiesta que me inviten, les cantare mi canción.
    
    ESTRIBILLO
    
                     Eb              Db           Ab
    Y no se para que voy si no tengo ningún pariente
    
  •    LA             MI        RE        LA 
    E----------------------------------------
    B--5-5-5---5-0-0--9-9-9--0--7-7-7--0--5-- (VUELVE A EMPEZAR)
    G--6-6-6---6-0-0--9-9-9--0--7-7-7--0--6--
    D----------------------------------------
    A----------------------------------------
    E----------------------------------------
    Esta base se usa durante toda la canción.
     
    (el intro también se puede hacer tocando sobre la tónica y su 
    tercera sobre la base la mi re la)
     
     
     
               MI        RE          LA
    Cocaína, cocaína, ya me voy para Bolivia.
                 MI         RE            LA
    Cocaína, marihuana, me espera una boliviana. (2 veces)
     
                    LA               MI             RE          
    
  • e------------------------------------l
    B-8--888888-7-5--------------------8-l
    G---------------7--7-7-7-7-5--5-5-7--l x4
    D------------------------------------l
    A------------------------------------l
    E------------------------------------l
    Cocaína cocaína..
    e---------------------8--------------l
    B-7--7-7-7-7-5--5-5-7----------------l
    G------------------------------------l x1
    D------------------------------------l
    A------------------------------------l
    E------------------------------------l
    
    e------------------------------------l
    B-8--888888-7-5--------------------8-l
    G---------------7--7-7-7-7-5--5-5-7--l x2
    D------------------------------------l
    A------------------------------------l
    E------------------------------------l
    
  • +
    ¡Colabora con nosotros!
    Envíanos tu versión de esta canción

Letra de Blues de Bolivia
Cocaína, cocaína, ya me voy para Bolivia,
¡ X 2
cocaína marihuana me espera una boliviana../
Cuando vaya pa’bolivia por las calles voy a andar
Quizás entre en un cine y después entre en un bar.
Seré amable con la gente, les daré mi corazón
a cada fiesta que me inviten, les cantare mi canción.
ESTRIBILLO
Y no se para que voy si no tengo ningún pariente
Pero siempre es conveniente conocer otros países
Sobre todo cuando dicen que esta en vías de desarrollo
Entonces yo les brindo mi apoyo entonando mi canción
ESTRBILLO
Y cuando este por ahí voy a ir a un centro cultural
A informarme de su status y su histórico pasar.
Compartiremos poesías, historias y geografía
Ellos me hablaran de su patria, yo les hablare de la mía.
2DO ESTRIBILLO
Cocaína, cocaína, ya me voy para Bolivia,
cocaína marihuana me espera una boliviana..
cocaina cocaina
cocaina marihuana
Cuando vuelva de Bolvia traere pa mis hermanos
una bolsa, una bolsa asi grandota de regalo
REPITE 2DO ESTRBILLO (2VECES)
Cocaína, cocaína, nos corre la policia,
cocaína marihuana por turista voy en cana..
Cocaína, cocaína, se la quedan los de arriba,
cocaína marihuana prenden fuego y no qeman nada..
Bueh, espero q les haya gustado
Un saludo para Franco q NO le gusta esta cancion
Cuidense
ºººEl neGroººº
"""HeY HeY My My, El RnR No MoRiRa JaMaS"""




[Blues de Bolivia chords][Blues de Bolivia cifra]
© LaCuerda.net · aviso legal · privacidad · es · en · pt · contacto