Acordes de Guitarra » P »Patricio Rey y sus Redonditos de Ricota » Yo no me cai del cielo (Tab)

Yo no me cai del cielo
Patricio Rey y sus Redonditos de Ricota

Letras, Acordes y Tabs para Guitarra, Bajo y Ukulele

  • |--------------------------------------------------|
    |---------------------3----------------------------|
    |---2---------2-------2-------2----------2--4-5-7--|
    |---2---------2----------x3---2----------2--4-5-7--|
    |-----0-0-0-0---0-0-0-----------0-0-0-0------------|
    |--------------------------------------------------|
    
    Riff:
    
    D Dsus4 D Dsus2    D Dsus4 D Dsus2
    
    A
    
    |--------------------------------------------------|
    |-----2-3-5-3-5-(3)--------------------------------|
    |-4-4----------------------------------------------|
    |--------------------------------------------------|
    |--------------------------------------------------|
    |--------------------------------------------------|
    
    
  •       Bm                        D
      !------------2-------0---------!------3-2--------!--------------------!
      !---------3----3-5-2-----------!----------3------!--------------------!
      !------4----------------2-4----!-----------2-----!--------------------!
      !------------------------------!-----------------!--------------4-5-7-!
      !------------------------------!-----------------!-------4-5-7--------!
      !------------------------------!-----------------!---5-7--------------!
    
    Intro: RE SOL LA RE
    SIm                     LA
    Nena no quiero perderte
    SIm             LA
    no pases de todo 
                     RE
    que no esta tan mal
    SOL                 RE
    Yo no me cai del cielo
    SOL              
    Pero si de un bar muy triste
    RE
    
  • GUITARRA:   LA
    E|----------------------|-------2------|--|----------------------|--------------(2)-|
    B|----------------------|-------3------|--|----------------------|--------------(3)-|
    G|-------------2----(2)-|-------2--(2)-|X3|-------------2----(2)-|--2--2--2--2--(2)-|
    D|-2---2-2-2---2--x-(2)-|-2-2-2----(2)-|--|-2---2-2-2---2--x-(2)-|--2--2--2--2--(0)-|
    A|-0---0-0-0---0--x-----|-0-0-0----(0)-|--|-0---0-0-0---0--x-----|--0--0--0--0------|
    E|----------------------|--------------|--|----------------------|------------------|
    PM..   .....              .....                ......
    BAJO:
    G|----------------------------------------------------------------------------------|
    D|----------------------------------------------------------------------------------|
    A|-----------------------------------------------------------------------------3-5--|
    E|----------------------------------------------------------------------------------|
    
    despues...
    
    RIFF 1
    GUITARRA:
    
    E|-3-2------3-2--------|--------------------|-3-2------3-2--------|-------------------|
    
  •       _____________________________________
         /
    +---+---------------------------------------+---+
    |   | 1 | 2 | 3 | 4 | 5 | 6 | 7 | 8 | 9 | 10| C |
    +---+---------------------------------------+---+
          _____________________________________/
    
     7 (7) 6 (4)  5     5  5  5 (5) 6 (5) 6
     (4)(5)(6)(5) 6  5  6  4
     7 (8)(9) 8 (9) 8  7 (8)   (8)(6) 6 (5) 6 (5) 5  4 (4)
     (5) 6 (6) 7 (8)   (4) 5 (5) 5 (4)  [[4 (4)(5)]]x4
     (6)(4) 5 (5) 5 (4) 4  6      5  4  3 (5) 4  3 (5) 4  3
    
      6 (6)(7) 7 (8) 8 (9) 9
      6 (6)(7) 7 (8) 8 (9) 9
    
    bueno pase los punteos de viola a armonica y esto es lo que me salio
    es dificil al principio pero suena bien, hay que tocarlo rapido
    aguanten los redondos el soldado charly y pappo
  • +
    ¡Colabora con nosotros!
    Envíanos tu versión de esta canción

Letra de Yo no me cai del cielo
Nena no quiero perderte
no pases de todo
que no esta tan mal
Yo no me cai del cielo
Pero si de un bar muy triste
Nena,
nena hay mucho olor a gato
nena no quiero perderte
si quieres puedes apostar.
Nena,
hay alegrias y alegrias
hay mucho vino malicioso
y poco vino del mejor.
Acordes: RE - SOL - SIm - LA




[Yo no me cai del cielo chords][Yo no me cai del cielo cifra]
© LaCuerda.net · aviso legal · privacidad · es · en · pt · contacto