Acordes de Guitarra » P »Patricio Rey y sus Redonditos de Ricota » Toxi - Taxi (Tab)

Toxi - Taxi
Patricio Rey y sus Redonditos de Ricota

Letras, Acordes y Tabs para Guitarra, Bajo y Ukulele

  • Intro: Dm  Gm  A7  (x2)
    
    Dm              Gm  A7
    Te tenemos allí
    Dm              Gm  A7
    abandonado allí
    Dm
    preso como un animal
    Gm
    como un animal feroz
    Dm                           Gm
    así las cosas, la fiera mas fiera
     A7
    ¿donde está?
    
    Intro
    
    Dm                   Gm  A7
    toxi taxi viene y va
    Dm                    Gm  A7
    
  • Dm            Gm 
    Te tenemos allí
    Dm             Gm
    abandonado allí
    Dm
    preso como un animal
    Gm
    como un animal feroz
    Dm                           Gm     C         Dm Gm 
    así las cosas, la fiera más fiera ¿dónde está?
    (intro)
    
    El toxi-taxi viene y va
    y tu sombra va detrás (Fill 1)
    de hordas de notables con los secretos para ser
    un negocio tan pequeño y simple como vos. (Fill 2)
    
    C                    Bb
    Un toque por si las moscas van
    C                    Bb        (Fill 3)
    
  • Dm            Gm
    Te tenemos allí
    Dm             Gm
    abandonado allí
    Dm
    preso como un animal
    Gm
    (como un animal feroz)
    Dm                           Gm     C         Dm Gm
    así las cosas, la fiera más fiera ¿dónde está?
    (intro)
    
    El toxi-taxi viene y va
    y tu sombra va detrás (Fill 1)
    de hordas de notables con los secretos para ser
    un negocio tan pequeño y simple como vos. (Fill 2)
    
    C                    Bb
    Un toque por si las moscas van
    C                    Bb        (Fill 3)
    
  •     REm                 SOLm
    E|-------------------|--------------------------------------------|
    B|-------------------|--------------------------------------------|
    G|---------2--0-0----|--------------------------------------------|
    D|-0--0--3---------0-|-2-(3)-2-3-2-3--2---------------------------|X1
    A|-------------------|-------------------0-(1)-0-1-0-1----/-(3)---|
    E|-------------------|--------------------------------------------|
    
    BAJO:    REm                 SOL
    G|-------------------|--------------------------------------------|
    D|-------------------|--------------------------------------------|
    A|---5-----5---------|--------------------------------------------|X1
    E|------5-----5------|-----3----3--------3-h-4-----5----(5)-------|
    
    suigue asi..
    guitarra
        REm                 SOLm
    E|-------------------|--------------------------------------------|
    B|-------------------|--------------------------------------------|
    G|---------2--0-0----|--------------------------------------------|
    
  •     REm                 SOLm               LA7
    E|---------------------|-------------------------------------|
    B|---------------------|-------------------------------------|
    G|-----------2-0-------|-------------------------------------|
    D|-0--0--0-3-----3-(0)-|-0-2-3-2-3-2-3--(2)------------------|X1
    A|---------------------|--------------------1-0-1-0-1--/---3-|
    E|---------------------|-------------------------------------|
    
    BAJO:
    
        REm                 SOL           LA7
    G|-------------------|---------------------------------------|
    D|-------------------|---------------------------------------|
    A|--5---3--5---------|---------------------------------------|X1
    E|----5------5-------|--3--3---0--3---5--5-------------------|
    
    suigue asi..
    
    
    guitarra:
    
  • +
    ¡Colabora con nosotros!
    Envíanos tu versión de esta canción
  • Tutorial
    HD
    Explicado - Como tocar "Toxi taxi" de Los Rendondos en el bajo tutorial#175
    11:43

Letra de Toxi - Taxi
Te tenemos allí
abandonado allí
preso como un animal
como un animal feroz
así las cosas, la fiera mas fiera
¿donde está?
toxi taxi viene y va
y tu sombra va detras
de hordas de notables con los secretos para ser
un negocio tan pequeño y simple
como vos.
un toque por si las moscas van
y otro toque por si vas detrás
ya no hay tiempo de lamentos, ya no hay más
un sueño con luis maria
muerto cuando me decía
cada día veo menos, cada día veo menos
cada día veo menos, creo menos mal
un toque por si las moscas van
y otro toque por si vas detrás
ya no hay tiempo de lamentos, ya no hay mas.
ya no hay mas
ya no hay mas




[Toxi - Taxi chords][Toxi - Taxi cifra]
© LaCuerda.net · aviso legal · privacidad · es · en · pt · contacto