Acordes de Guitarra » P »Patricio Rey y sus Redonditos de Ricota » Superlógico (Tab)

Superlógico
Patricio Rey y sus Redonditos de Ricota

Letras, Acordes y Tabs para Guitarra, Bajo y Ukulele

  • (F#m D) x4
    (F#m C#5 D5) x8
    
    F#m                        D
       Ahí van los machos para consumar
    
    F#m                       D
       una hermosa dotación vital.
    
    F#m               D
       Superlógico ¡Sí! Superlógico ¡Sí!
    
    F#m                        C#5 D5 x8
       Superlógico ¡Sí sí sí...!
    
    Después el tema sigue con los mismos acordes de antes.
    
    El club de mantis muy nervioso está, 
    esas hembras no son dulces, no.
    Superlógico, superlógico, superlógico.
    
  •               (A)
    1[------------------------------------]
    2[------------------------------------]
    3[------------------------------------]
    4[---------4-6-7-6-4-----4-6-7-6-4----]   X 4
    5[-------4-----------4-5--------------]
    6[---7-7------------------------------]
    
             (B) 
    
    1[-------][-------]
    2[-------][--6-7--]
    3[-------][-------]
    4[--3-4--][-------]   
    5[-------][-------]
    6[-------][-------]
    
        X 4      X 4
    
                          (C)
    
  • E|-------------------|-------------------|-------------------|------------------|
    B|-------------------|-------------------|-------------------|------------------|
    G|-------------------|-------------------|-------------------|------------------|
    D|---------4-6-7-6-4-|-------4-6-7-6-4---|---------4-6-7-6-4-|------4-6-7-6-4-0-|
    A|------4------------|--4-5--------------|------4------------|-4-5--------------|
    E|-7-7---------------|-------------------|-7-7---------------|------------------|
    
    *'Semilla' Bucciarelli (BAJO)
              
        FA#                      RE                FA#                 RE       
    G|-------------------|-------------------|-------------------|------------------|
    D|-------------------|-------------------|-------------------|------------------|
    A|-------------------|----5-----5-(5)----|-------------------|---5----5--(5)----|
    E|------2----2-(2)---|-------------------|--2----2--(2)------|------------------|
    
    
    *'Skay' Bellinson (guitarra)
    
    E|-------------------|-------------------|-------------------|---------|--------|
    B|-------------------|-------------------|-------------------|---------|--6--7--|
    
  • SOLO DE GUITARRA: ()
    ----------------
    
    *"Skay" Bellinson (Guitarra)
    
    E|-(2)~--5-5--2------------------------------2--(2)~------------5---------------|
    B|-(2)~--5-5--2----------------------------2----(2)~---10-10/-7-5--7--10~-/-----|
    G|-(2)~---------4br-4-2-4-2--------2~---4b--------------9--9/-6-------9-~-/-----|
    D|--------------------------4-2--4----------------------------------------------|
    A|------------------------------------------------------------------------------|
    E|------------------------------------------------------------------------------|
    
    E|---9--12-9-------|---------------------9--12-----|----------------------------|
    B|-10---------(10)-|--5-5-5~-55/(7)~/10b------(9)~-|-13b-13b-13b-12-10-12-------|
    G|11---------------|-6-----------------------------|----------------------11----|
    D|-----------------|-------------------------------|----------------------------|
    A|-----------------|-------------------------------|----------------------------|
    E|---------
  • F#m - D x3
    
    F#m
    
    C#-D x8
    
    RIFF 1:
         F#m               D
    |----------------|---------------|
    |----------------|---------------|
    |-----------2----|---------2-----|   x3
    |---------4--4---|-------4---4---|
    |-------4------4-|-2-5-5-------5-|
    |-0-(2)----------|---------------|
    
           F#m
    
    |----------------|--------------------------------|
    |----------------|-----------------6-7-6-7-6-7-6-7|
    |-----------2----|-6-7-6-7-6-7-6-7-6-7-6-7-6-7-6-7|
    
  • *
     Intro/Verso/Estribillo
     			x3 |	     x1 |  x4 |
    G|-------------------------|------------|-----|
    D|----------------7--------|------------|-----|
    A|------3----5--5---5-7----|------3---5-|-2-3-|
    E|-1--1---1-------------5--|-1--1---1---|-----|
    
    *
     Puente
    G|--------|-----------------|--------|----------------|
    D|--------|-----------------|--------|----------------|
    A|----5---|-2-3-2-3-2-3-2-3-|----5---|-2-3-2-3-2-3-2--|
    E|-1------|-----------------|-1------|----------------|
    
    *
     Riff del Solo de Guitarra
    G|-------------------------| x8
    D|----------------7--------|
    A|------3----5--5---5-7----|
    E|-1--1---1-------------5--|
    
    Escuchá la canción para saber el ritmo
  • +
    ¡Colabora con nosotros!
    Envíanos tu versión de esta canción
  • Tutorial
    HD
    Explicado - Como tocar "Superlogico" de Patricio Rey y sus Redonditos de Ricota de bajo tutorial#19
    12:55

Letra de Superlógico
Ahí van los machos para consumar
una hermosa dotación vital.
Superlógico ¡Sí! Superlógico ¡Sí!
Superlógico ¡Sí sí sí...!
Después el tema sigue con los mismos acordes de antes.
El club de mantis muy nervioso está,
esas hembras no son dulces, no.
Superlógico, superlógico, superlógico.
Tal orgía van a banquetear.
Sin descanso van a devorar.
Súper rígido, súper rígido, súper rígido. ¡Sí, sí, sí!
El rostro se comienza a afiebrar.
Esas hembras no son dulces, no.
Superlógico, superlógico, superlógico.
Superlógico, superlógico, superlógico.
Superlógico, superlógico, superlógico.
Superlógico, superlógico, superlógico.
Aguanten los redondos!




[Superlógico chords][Superlógico cifra]
© LaCuerda.net · aviso legal · privacidad · es · en · pt · contacto