Acordes de Guitarra » P »Patricio Rey y sus Redonditos de Ricota » Salando las heridas (Tab)

Salando las heridas
Patricio Rey y sus Redonditos de Ricota

Letras, Acordes y Tabs para Guitarra, Bajo y Ukulele

  • E|-----------3-------------0|--|---------------------------|
    B|---------3---------------1|--|---------------------------|
    G|-------2-----------------2|--|---------------------------|
    D|-0-2-3-------3-2---------2|X3|-0--3--(5)-->dejar--sonando|
    A|-----------------3-2--0--0|--|---------------------------|
    E|--------------------------|--|---------------------------|
    
    
    
    riff:
               F6(9)*                      Am
    E|-------------------------3-----|---0--|
    B|--------------------3-------3--|---1--|
    G|-0----------------2----2------2|---2--|
    D|----3--2--0--2--3--------------|---2--|
    A|-------------------------------|---0--|
    E|-------------------------------|------|
    
    VERSO 1:
    
    
  • E|------------------------------------|--|---------------------------------------------|
    B|---------------9--------------------|--|---------------------------------------------|
    G|------------10----------------------|X3|---------------------------------------------|
    D|---------10---------------------(7)-|--|------(5)~------(dejar nota sonando)---------|
    A|--5--7--8--------88-----------7-(7)-|--|--7-8----------------------------------------|
    E|---------------------8-7-5----5-(5)-|--|---------------------------------------------|
    
    BAJO
    G|------------------------------------|--|---------------------------------------------|
    D|------------------------------------|--|------(5)------(dejar nota sonando)----------|
    A|--5--7-(8)--------------------------|X3|--7-8----------------------------------------|
    E|---------------------8-7(5)---------|--|---------------------------------------------|
    
    
    
    VERSO 1:
    
    riff 1
          Saliste ya mil veces
    riff 1
    
  • Intro:
    G|--------------|x3 |-------|
    D|--------------|   |-----5-|
    A|-5-7-8--8-7-5-|   |-5-8---|
    E|--------------|   |-------|
    
    Pre-Verso:
    G|-------------|x1
    D|-5-----------|
    A|---8-7-5-7-8-|
    E|-------------|
    
    Verso Nº1:
    G|-----------|-----------------|x3
    D|-----------|-----------------|
    A|-55-77-88--|-5-7-8--55-77-88-|
    E|-----------|-----------------|
    
    Verso Nº2 ('un día el bote volcó...'):
    G|----------------------------------------------|
    D|----------------------------------------------|
    A|----------------------------------------------|
    E|-5(x8)-3(x8)-2(x8)-1(x8)--5(x8)-3(x8)-2(x8)-1-|
    
    Verso Nº3:
    G|------------------|x4
    D|------------------|
    A|-5-7-8--55-77-88--|
    E|------------------|
    
    Verso Nº4 ('fundiendo plomo lográs...'):
    G|----------------------------------------------|
    D|----------------------------------------------|
    A|----------------------------------------------|
    E|-5(x8)-3(x8)-2(x8)-1(x8)--5(x8)-3(x8)-2(x8)-1-|
    
    Pre-Solo de Guita
  • Intro:
    G|--------------|x3 |-----0~----|
    D|-0-2-3--------|   |-0-2-------|
    A|--------3-2-0-|   |-----------|
    E|--------------|   |--------3~-|
    
    **Verso:
    ('Saliste ya mil veces...')
    G|------------------|x3    |-------------------|x3
    D|-0-2-3--00-22-----|      |-0-2-3--00-22/7~---|
    A|--------------00--|      |-------------------|
    E|------------------|      |-------------------|
    
    ('un día el bote volcó...')
    G|-------------------------------------------------|
    D|-7--7--77---5--5--55----4--4--44--3--33--0-------|
    A|-------------------------------------------23----|
    E|-------------------------------------------------|
    
    ('y vos allí en mi remolque...')
    G|-------------------------------------------------|
    D|-------------------------------------------------|
    A|-0000-0000---------------------------------------|
    E|-------------3333-3333---1111-1111---1-----------|
    
    ('Mirá que tipo espeso...')
    G|------------------|x3    |-------------------|x3
    D|-0-2-3--00-22-----|      |-0-2-3--00-22/7~---|
    A
  • +
    ¡Colabora con nosotros!
    Envíanos tu versión de esta canción
  • Tutorial
    HD
    Explicado - Como tocar "Salando las heridas" de Los Redondos en el bajo tutorial#169
    11:52

Letra de Salando las heridas
riff:
VERSO 1:
riff 1
Saliste ya mil veces
riff 1
de la pista a respirar
riff 1
a reclutar, bien maquillado
riff 1
y ocultando tu lunar.
Un dia el bote volco
y el premio a pique se fue
Fmaj7(Am/F)
todos te daban por muerto
y vos alli en tu remolque
Fmaj7(Am/F)...Corta
sin luz, como un polizon.
VERSO 2: (igual al 1)
riff 1
Mira que tipo espeso
riff 1
sumiso como un guiso mas
riff 1
un vago de mil caravanas
riff 1
a punto de quedar a pie .
Fundiendo plomo logras
chorros de oro cochino
Fmaj7(Am/F)
en besos de lo mas desnudos
pero el cafe con tu suerte
Fmaj7(Am/F)
se enfria en mi mesa fria
Guitarra:
GUITARRA: (solo).
ESTRIBILLO
Apuntamos a tu nariz
undimos tus pomulos
Fmaj7(Am/F)
y vos resplandecias
no te quedo sueño por vengar
Fmaj7(Am/F)
y ya no esperas que te jueguen limpio
(corta)
nunca mas
VERSO 3 (Igual a los otros versos)
riff 1
Salando las heridas
riff 1
jodiste a todo cristo y mas...
riff 1
a boluditos de la luna
riff 1
y tipas porno-nazi look
ESTRIBILLO 1 (Igual)
Un dia el bote volco
y el premio a pique se fue
Fmaj7(Am/F)
todos te daban por muerto
y vos alli en tu remolque
Fmaj7(Am/F)...Corta
sin luz, como un polizon.
Arreglo 1:
Arreglo 2:
Arreglo 3:
riff 1 Arreglo 1
Tu lengua se derrite
riff 1 Arreglo 2
en modas de la rabia de hoy
riff 1 Arreglo 3
cuando enfermas con tanta gana
riff 1
cerras las filas del dolor
Fundiendo plomo logras
chorros de oro cochino
Fmaj7(Am/F)
en besos de lo mas desnudos
pero el cafe con tu suerte
Fmaj7(Am/F)
se enfria en mi mesa fria
Guitarra:
"SEGUNDO SOLO DE GUITARRA":
Apuntamos a tu nariz
undimos tus pomulos
Fmaj7(Am/F)
y vos resplandecias
no te quedo sueño por vengar
Fmaj7(Am/F)
y ya no esperas que te jueguen limpio
(Final)
nunca mas
Fmaj7(Am/F) (final)
TABLATURA:
p o ^: ligado descendente
h o ^: ligado ascendente
() : dejar nota sonando
/ : deslizar
br : estirar la nota y volver a la misma que a sido estirada ant.
PM : Palm mute (tapar las cuerdas con la mano derecha)
~ : Vibrato




[Salando las heridas chords][Salando las heridas cifra]
© LaCuerda.net · aviso legal · privacidad · es · en · pt · contacto