Acordes de Guitarra » P »Patricio Rey y sus Redonditos de Ricota » Ropa Sucia (Tab)

Ropa Sucia
Patricio Rey y sus Redonditos de Ricota

Letras, Acordes y Tabs para Guitarra, Bajo y Ukulele

  • INTRO: LAm FA MI
    
    LAm              FA
    ¿Donde usas los dientes mi amor?
    LAm              FA
    -clavados en el cuello, por hoy...
    LAm         FA      LAm    FA
    (mientras bailamos tangos fatales).
    
    LAm             FA
    El tango que ocultamos mejor
    LAm        FA
    (Del que preferimos no hablar)
    LAm           FA     LAm      FA
    es el que nos tiene anarcotizados.
    
    SOL                FA
    Vivir, solo cuesta vida
    DO                         RE           FA
    ahora! ya mismo! puedo ajustar un guión de ropa sucia
    
  •        LA5              FA5            LA5             FA5 + Riff 1                      
    e|---------------0-|------------1-1-|------------0-|------------------|---
    B|---------------0-|------------1-1-|------------0-|------------------|---
    G|-----------------|----------------|--------------|------------------|---
    D|--2--2-2--2-2----|-3--3-3--3------|-2--2-2--2-2--|-3--3-3--3--------|---
    A|--0--0-0--0-0----|-3--3-3--3------|-0--0-0--0-0--|-3--3-3----3-2^3~-|--
    E|-----------------|-1--1-1--1------|--------------|-1--1-1-----------|---
     PM    ........         ......           ........       ...
    
    GUITARRA 2:
    
    e|----------------3|(5b)-3---3--(5b)|-------------3|(5b)-3---3--------|-
    B|------------3-5--|-------5--------|---------3-5--|-------5---5------|-
    G|-----------------|----------------|--------------|------------------|-
    D|-----------------|----------------|--------------|------------------|-
    A|-----------------|----------------|--------------|------------------|-
    E|-----------------|----------------|--------------|------------------|-
    
    BAJO:
         LA                FA              LA              FA
    
  • e|-----------8-10-10(11)10-8----8-10(11)--
    b|--------10-----------------10-----------
    g|----------------------------------------
    d|----------------------------------------
    a|-7-7-7----------------------------------
    e|-5-5-5----------------------------------
    
    e|-----------8-10-10(11)10-8----8-8-------
    b|--------10-----------------10-----10----
    g|----------------------------------------
    d|----------------------------------------
    a|-7-7-7----------------------------------
    e|-5-5-5----------------------------------
    
    e|-----------8-10-10(11)10-8----8-10(11)--
    b|--------10-----------------10-----------
    g|----------------------------------------
    d|----------------------------------------
    a|-7-7-7----------------------------------
    e|-5-5-5----------------------------------
    
  • Intro
    G|------------------|x3 |-----|-----------|
    D|------------------|   |-----|-----------|
    A|------------------|   |-----|-----------|
    E|-5-55555-1-1111-0-|   |-(5)-|-55-555555-|
    
    Verso
    G|------------------|x8
    D|------------------|
    A|------------------|
    E|-5-55555-1-1111-0-|
    
    Coro
    G|--------|---------------------------------|-----------------|
    D|--------|---------------------------------|-----------------|
    A|--------|-----0---3-0-1-3-----0---3-0-1-3-|-3(x16)-5(x16)---|
    E|-3(x16)-|-111---1---------111---1---------|---------------1-|
    
     |-----------------------|x3 |-----|-----------|
     |-----------------------|   |-----|-----------|
     |----4---7-5-4----------|   |-----|-----------|
     |-55---5-------1-111111-|   |-(5)-|-55-555555-|
    
    Verso
    G|------------------|x4
    D|------------------|
    A|------------------|
    E|-5-55555-1-1111-0-|
    
    Solo de Saxo
    G|--------|---------------------------------|-----------------|
    D|--------|---------------------------------|-----------
  • Intro
    |--------------------------------|x3|--------------------------------|
    |--------------------------------|  |--------------------------------|
    |--------------------------------|  |--------------------------------|
    |5---5-5-5-5-5-5---1---1-1-1-1-0-|  |-(5)-------0-0-0-0-0-0-0--------|
    
    Verso
    |--------------------------------|x8
    |--------------------------------|
    |--------------------------------|
    |5---5-5-5-5-5-5---1---1-1-1-1-0-|
    
    Algunas de las veces que repite el verso, le hace cambios, fíjense cuando va:
    |--------------------------------|
    |--------------------------------|
    |---------------------------3--1-|
    |5---5-5-5-5-5-5---1---1-1-------|
    
    vivir, solo cuesta vida...
    |----------------------------------------------------------------|
    |--------------------------------------------3-0-3-0-3-0-3-0-3-5-|
    |--------------------------------------1---3---------------------|
    |3-3-3-3-3-3-3-3-3-3-3-3-3-3-3-1-1-1-1---------------------------|
    
    |-------------------
  • +
    ¡Colabora con nosotros!
    Envíanos tu versión de esta canción
  • Tutorial
    Ropa sucia Los Redondos Cover Como tocar
    4:29

Letra de Ropa Sucia
¿Donde usas los dientes mi amor?
-clavados en el cuello, por hoy...
(mientras bailamos tangos fatales).
El tango que ocultamos mejor
(Del que preferimos no hablar)
es el que nos tiene anarcotizados.
Vivir, solo cuesta vida
ahora! ya mismo! puedo ajustar un guión de ropa sucia
Ropa sucia fuera! ahora mismo!
Andas dando guerra y temblas
gastándote en relámpagos
(tu estómago gruñe como enjaulado)
Tu gracia me da miedo, mi amor
dejo de beber tu licor
que huele a tormenta de viejo estilo
Vivir sólo cuesta vida
ahora! ya mismo! puedo ajustar un guión de ropa sucia
ropa sucia fuera! ahora mismo!




[Ropa Sucia chords][Ropa Sucia cifra]
© LaCuerda.net · aviso legal · privacidad · es · en · pt · contacto