Acordes de Guitarra » P »Patricio Rey y sus Redonditos de Ricota » Rock para los dientes (Tab)
  • Letra y Acordes
    Intro: (Bm Bm A G) x8
    
    Bm                              A        G
    Este mundo, esta empresa, este mundo de hoy
    Bm                            A     G
    que te esnifa la cabeza una y otra vez
    Bm                                A     G
    Es una línea y otra línea y otra línea más
    Bm                               A     G
    Voy cumpliendo como puedo, yo trabajo acá!
    
    Em
      Y te esnifo la cabeza
    Bm
      Cada día más, cada día más.
    Em
      Y me esnifan la cabeza
    F#
      y nada ni nadie lo puede, lo puede parar.
    
    
  • Tablatura
    |-------0-7-7--|-----10-10-7-7-------------------------------------------------------------
    |-------0-7-7--|---------------10-10-7-7-----------------------9-9--7-------------------------
    |--------------|-------------------------9-9-7-7---------7---7-9-9--7-----------------------
    |--------------|---------------------------------9-9-7-9---9-----------------------
    |--------------|----------------------------------------------------------
    |-5h7----------|---------------------------------------------------------------
    
    Escuchen el tema. Se van a dar cuenta. 
    Matias 
    
    
    
    Intro: (Bm Bm A G) x8
    
    Bm                              A        G
    Este mundo, esta empresa, este mundo de hoy
    Bm                            A     G
    que te esnifa la cabeza una y otra vez
    Bm                                A     G
    Es una línea y otra línea y otra línea más
    
  • Tablatura
                      SI                       LA (rasgueo)  SOl (rasgueo)
    e|---------7-7----------7-7-----------7-7-|----5------|--3----------||
    B|---------7-7----------7-7-----------7-7-|----5------|--3----------||
    G|----------------------------------------|----6------|--4----------|| X4
    D|----------------------------------------|----7------|--5----------||
    A|----------------------------------------|----7------|--5----------||
    E|-5^7--7-------5^7--7---------5^7--7-----|----5------|--3----------||
    
    BAJO             SI                         LA            SOL
    G|----------------------------------------|-----------|-------------||
    D|----------------------------------------|-----------|-------------|| X4
    A|----------------------------------------|-----------|-------------||
    E|-5^7--7--7-7--5^7--7--7-7----5^7--7-7-7-|--(5)------|--(3)--------||
    
    punteo.
    
    guitarrA y SAXO..
    
    e|10-10-7-7------------------------------------------|10-10-7-7---------------------------------|
    B|---------10-10-7-7---------------------------99-(7)|---------10-10-7-7----------------7-9-7(7)|
    
  • Tab p/Bajo
    Intro
    G|-----------------------------|x8
    D|-----------------------------|
    A|-0h2-2-2-0h2-2-2-0h2-2-2-----|
    E|-------------------------5-3-|
    
    Verso
    G|-----------------------------|x4
    D|-----------------------------|
    A|-0h2-2-2-0h2-2-2-0h2-2-2-----|
    E|-------------------------5-3-|
    
    Coro
    G|---------------------|
    D|---------------------|
    A|-1/7-7(x16)-7-7(x16)-|
    E|---------------------|
     
     |-----------------------------|
     |-----------------------------|
     |-0h2-22-0h2-22-0h2-22-0h2-22-|
     |-----------------------------|
    
     |---------------------|
     |---------------------|
     |-1/7-7(x16)-7-7(x16)-|
     |---------------------|
    
     |----------------------|
     |----------------------|
     |-9-9(x24)-99-88-77-66-|
     |----------------------|
    
    Intro
    G|-----------------------------|x2
    D|-----------------------------|
    A|-0h2-2-2-0h2-2-2-0h2-2-2-----|
    E|-------------------------5-3-|
    
    Verso
    G|-----------------------------|x4
    D|-----------------------------|
    A|-0h2-2-2-0h2-
  • +
    ¡Colabora con nosotros!
    Envíanos tu versión de esta canción

Letra de Rock para los dientes
Este mundo, esta empresa, este mundo de hoy
que te esnifa la cabeza una y otra vez
Es una línea y otra línea y otra línea más
Voy cumpliendo como puedo, yo trabajo acá!
Y te esnifo la cabeza
Cada día más, cada día más.
Y me esnifan la cabeza
y nada ni nadie lo puede, lo puede parar.
(Como en intro)
Vos creés ser el más fiero, el más prontuariado aquí.
El animador del juego (el condimentador).
Estás buscando un pequeño infierno para vos
donde soportar el fuego de mi ataque de hoy.
Y te esnifo...
Sos un tipo pan comido, no es tu culpa, no.
Zambullido en el caldero (es la fatalidad).
Es endemoniadamente caro lo que sos.
Este clip me pone tieso, yo me bajo acá!
Y te esnifo la cabeza cada día más, cada día más.
Y me esnifan la cabeza,
y nada ni nadie nos puede, nos puede parar.
Aguanten los redondos!



© LaCuerda.net · aviso legal · privacidad · contacto