Acordes de Guitarra » P »Patricio Rey y sus Redonditos de Ricota » Rock para las Abejas (Tab)
  • Tablatura
    e|--7----7-7-------5----------------|--|--7----7-7-------5---------------|
    B|-----7-7-7----5--5----5---3-4-----|--|-----7-7-7----5--5----5--3-4-(5)-|
    G|----------------------4-------(4)-|X3|----------------------4----------|
    D|----------------------------------|--|---------------------------------|
    A|----------------------------------|--|---------------------------------|
    E|----------------------------------|--|---------------------------------|
    
    BAJO:
    G|---------------------------------|--|--------------------------------|
    D|---------------------------------|X3|--------------------------------|
    A|-------------------------5-6-----|--|------------------------5-6-(7)-|
    E|--------------5--5---0-------(7)-|--|---7--7-7-7---5-5----0----------|
    
    sigue asi...
    
    Guitarra:        
          MI5              SI                  FA #                 MI
    e|-----------------|--------------|--|--14-14b--14-12----14/-|--12-12b--12-10-----12/-|   Si
    B|-----------------|--------------|--|----------------14-----|-----------------12-----|
    G|----(9)-----(9)--|--------------|X2|-----------------------|------------------------|
    
  • +
    ¡Colabora con nosotros!
    Envíanos tu versión de esta canción

Letra de Rock para las Abejas
BAJO:
sigue asi...
Guitarra:
SAXO:
GUITARRA:
BAJO:
VERSO 1:
Negro, esto es mucho más lindo
después de la clandestinidad.
GUITARRA
Fill 1
BAJO: (MI)
REPITE PUENTE:
GUITARRA:
BAJO:
VERSO 2: (igual)

Los ojitos tristes te sientan
y un buen par de tarros te vas a comprar.
GUITARRA : (cambia riff)

BAJO: (entra desde aca)
ESTRIBILLO 1:
Cuando te de den tu astillita
vas a putear y putear
con tanto tiempo inactivo
el ñamfi se te enfrió y sos un punto más.
GUITARRA:
****REPITE PUENTE 1*****
VERSO 3 (igual)
Desde que fumás malvaloca
ni te acordás que fuiste un chabón,
****REPITE PUENTE 1*****
VERSO 4 (igual)
al que mandó una pupila
acomodada en un celular.
****REPITE PUENTE 2*****
ESTRIBILLO 2: (igual)
Y va coreando la pobre,
dele carajo y putear,
te mando a cafúa gritando.
el súper-gordo-súper de Navidad.
****REPITE PUENTE 1*****


***********************************
REPITE PUENTE 1
REPITE VERSO 1
REPITE VERSO 1
REPITE ESTRIBILLO 1
REPITE PUENTE 1
REPITE VERSO 3 (igual)
REPITE PUENTE 1
REPITE VERSO 4 (igual)
REPITE PUENTE 2
REPITE ESTRIBILLO 2: (igual)
****REPITE PUENTE 1*****
y final.
GUITARRA y saxo:

fin.....



© LaCuerda.net · aviso legal · privacidad · contacto