Acordes de Guitarra » P »Patricio Rey y sus Redonditos de Ricota » Noticias de ayer (Tab)

Noticias de ayer
Patricio Rey y sus Redonditos de Ricota

Letras, Acordes y Tabs para Guitarra, Bajo y Ukulele

  • Intro:
    
    Riff I
    e|----------------------------------------|
    B|----------------------------------------|
    G|----------------------------------------|
    D|------3----3-----3----33-----3---3----3-|
    A|----------------------------------------|
    E|-0011---11---111---11----011---11--11---|
    
    Riff II
    e|----------------------------------------|
    B|----------------------------------------|
    G|-------------------------------------8--|
    D|-------------------------------------8--|
    A|---6-8----8-8-6---8-6--6-8---8-6-8-6-6--|
    E|-8-----8--------8-----8----8------------|
    
    Riff I
    Nose muy bien sobre que pierna bailo
    (a veces me agarra)
    perdí mi cupo para gas nervioso
    y noticias piratas
    
    Riff II
    Noticias de ayer extra! extra!
    Noticias de ayer extra! extra!
    
    EL TEMA SIGUE IGUAL. EL PRIMER SOLO ES ASI:
    
    e|-----------------------------------------------|
    B|-----------------------------------------------|
    G|-5-4-----5-4-----5-4-----5-4-------------------|
    D|-----3-5-----5-3-----5-3--
  • E---------------------------------------0-1-0-1-
    B-----------------------------------------------
    G-----------------------------------------------  X2
    D---------2-4-2-4-2-4-2---------2-4-2-4---------
    A-----------------------------------------------
    E-0-0-2-3---------------0-0-2-3-----------------
    
    riff:
    E-------------------------------3-3-
    B-----------------------------------
    G-----------------------------------
    D-------2-0---2-0-0-2-2-0---2-0-----  X2
    A-----------2-------------2---------
    E-3-2-0-----------------------------
    
    
               MI                         RE
    No se muy bien sobre que pierna bailo,
                 LA            MI     
    a veces me agarra, perdi mi cupo para 
    
  • GUITARRA:  SOl       (riff 1)                                    MI (riff 2)
    e|-----------------------------------------------|--|----------------------------------(0)|--|
    B|-----------------------------------------------|--|----------------------------------(8)|--|
    G|-----------------------------------------------|--|----------------------------------(9)|X2|
    D|---------3---3----3---3----------3---3---(3)-/-|X2|----------------------------------(9)|--|
    A|-----------------------------------------------|--|---------7-5-7-5----5-7----7-5-7--(7)|--|
    E|-0-1-2-3---3---3----3----0-1-2-3---3---3-------|--|-3-2-1-0----------7------0-----------|--|
    
    BAJO:   SOL                                                MI
    G|-----------------------------------------------|--|-------------------------------------|--|
    D|---------3---3----3---3----------3---3----3--ƒ-|X2|-------------------------------------|X2|
    A|-----------------------------------------------|--|-------------------------------------|--|
    E|-0-1-2-3---3---3----3----0-1-2-3---3---3-------|--|-3-2-1-0-0-0-0-0-0-0-0-0-0-0-0-0-0-0-|--|
    
    
    VERSO 1:
    
    GUITARRA:  SOl                                  DO SIb             
    e|---------------------------------------------------|----------------------------|-----|
    B|---------------------------------------------------|----------------------------|-----|
    
  • Intro - Igual que riff de guitarra
    G|-----------------------------------|x2
    D|------3---3---3---3------3---3---3-|
    A|-----------------------------------|
    E|-0123---3---3---3---0123---3---3---|
    
    
    Puente - Después de la bajada (3210) se queda en 0
    
    G|----------------|
    D|----------------|
    A|----------------|
    E|-3210-0-0-0-0---|
    
    Verso - Igual que intro
    G|-----------------------------------|x2
    D|------3---3---3---3------3---3---3-|
    A|-----------------------------------|
    E|-0123---3---3---3---0123---3---3---|
    
    Coro
    G|----------------|
    D|----------------|
    A|----------------|
    E|-3210-0-0-0-0---|
    
    
    Solo de Guitarra 1
    G|-----------------------|x4  |--------|x4
    D|-5-5------5----5----5--|    |-222222-|
    A|-----------------------|    |--------|
    E|--3----3----3----3-----|    |--------|
    
    
    
    Solo de Guitarra 2 y Final
    G|-----------------------|x2 G|-----------------------|x2
    D|-5-5------5----5----5--|   D|-7-7------7----7----7--|
    A|-----------------------|   A|-----------------------|
    E|--3----3----3-
  • +
    ¡Colabora con nosotros!
    Envíanos tu versión de esta canción
  • Tutorial
    HD
    Explicado - Como tocar "Noticias de ayer" de Los Rendondos en el bajo tutorial#173
    15:02






[Noticias de ayer chords][Noticias de ayer cifra]
© LaCuerda.net · aviso legal · privacidad · es · en · pt · contacto