Tablatura para Bajo de Patricio Rey y sus Redonditos de Ricota: Noticias de ayer
Conexión · Inscripción
Letras y Acordes
Pantalla Completa
Imprimir
Versión Texto
Añadir Favorito
Otras Versiones

Mostrar Diagramas
Desfile Automático
Formato del Texto


Noticias de ayer(BAJ)

Patricio Rey y sus Redonditos de Ricota

calidad:
redo0632
AUTOR: 8)
ALBUM: Un Baion Para el Ojo Idiota (1988)
Enviado por Freire73
Intro - Igual que riff de guitarra
G|-----------------------------------|x2
D|------3---3---3---3------3---3---3-|
A|-----------------------------------|
E|-0123---3---3---3---0123---3---3---|


Puente - Después de la bajada (3210) se queda en 0

G|----------------|
D|----------------|
A|----------------|
E|-3210-0-0-0-0---|

Verso - Igual que intro
G|-----------------------------------|x2
D|------3---3---3---3------3---3---3-|
A|-----------------------------------|
E|-0123---3---3---3---0123---3---3---|

Coro
G|----------------|
D|----------------|
A|----------------|
E|-3210-0-0-0-0---|


Solo de Guitarra 1
G|-----------------------|x4  |--------|x4
D|-5-5------5----5----5--|    |-222222-|
A|-----------------------|    |--------|
E|--3----3----3----3-----|    |--------|



Solo de Guitarra 2 y Final
G|-----------------------|x2 G|-----------------------|x2
D|-5-5------5----5----5--|   D|-7-7------7----7----7--|
A|-----------------------|   A|-----------------------|
E|--3----3----3----3-----|   E|--5----5----5----5-----|

G|-------------------------|
D|-10-10----10----10---10--|
A|-------------------------|
E|---8----8----8-----8-----|

G|------------|x4
D|-2222222222-|
A|------------|
E|------------|
Este fichero es trabajo propio de su transcriptor y representa su interpretación personal de la canción. El material contenido en esta página es
para exclusivo uso privado, por lo que se prohibe su reproducción o retransmisión, así como su uso para fines comerciales.

© LaCuerda.net · Aviso Legal · Privacidad