Acordes de Guitarra » P »Patricio Rey y sus Redonditos de Ricota » Nadie es perfecto (Tab)

Nadie es perfecto
Patricio Rey y sus Redonditos de Ricota

Letras, Acordes y Tabs para Guitarra, Bajo y Ukulele

  • Intro: A E D A
    
    A                E     
    Un tipo especial este super-boca
    D                    A
    experto del re-mundo actual
    A
    quizo ir a New York
    E
    (quizo ir a las series)
    D                 A
    quizo deslizar patés
    
              D          A
    Le hizo Crack! el hueso al final
                D      A
    que ruido Crack! hasta astillar
               D         A       F#
    le hico crack! el hueso al final
    Bm    E               E
    
  •     LA                MI             RE           LA
    E|-----------------|---------------|----3-3-2-|------------------|
    B|-----------------|---------------|-3--3-3-3-|------------------|
    G|-----------------|---------------|-2--2-2-2-|--------------2---|X 1
    D|-2-2--4-4--2-----|---------------|-0--------|-2-2------2-4-----|
    A|-0-0--0-0--0--3-4|-2--2------2-4-|----------|-0-0--3^4---------|
    E|-----------------|-0--0--3-4---0-|----------|------------------|
    
    Entra con el BAJO.
       LA                MI               RE          LA
    E|-----------------|---------------|----3-3-2-|------------------|
    B|-----------------|---------------|-3--3-3-3-|------------------|
    G|-----------------|---------------|-2--2-2-2-|--------------2---|X 1
    D|-2-2--4-4--2-----|---------------|-0--------|-2-2------2-4-----|
    A|-0-0--0-0--0--3-4|-2--2------2-4-|----------|-0-0--3^4---------|
    E|-----------------|-0--0--3-4---0-|----------|------------------|
    
    BAJO
        LA               MI              RE          LA
    G|-----------------|---------------|----------|------------------|
    
  •    Intro: [A - E - D - A] X 2
    
     E|-----------------------------2--2-3-2-3-2-------|
     B|------------------------------3---3---3--3------|
     G|-----------------------------2--2---2---2-------|
     D|-----2-2-2-2-2----------------------------------|
     A|-----0-0-0-3-4----------2-4---------------------|
     E|---------------0--0-3-4-------------------------|
    
     E|------------------------------------------------|
     B|------------------------------------------------|
     G|-----------2------------------------2-----------|
     D|-2-2----2-4--------------2-2-----2-4------------|
     A|-0-0--3-4----------------0-0--3-4---------------|
     E|------slide-------------------slide-------------|
    
                             Slide
     E|--2---2-3--2-3-2-----2------5-5-----------------|
     B|---3----3----3---3---2------5---------5--7------|
     G|--2---2----2---2----------------7-7---4--6------|
    
  • Comienza con un riff de guitarra una vuelta
    
    enganche (antes de que empiece la bata)
    g|-------
    d|-------
    a|-2345--
    e|-------
    
    intro y versos (Base: A, E ,D, A)
    g|-------------------------------------
    d|-----2-43-----------------------2-42-
    a|-0-4---------2-43-5-3-2-----0-4------
    e|---------0-4------------345----------
    
    coros
    g|-------------------------
    d|--------------2-44-55----
    a|-555-5320-0-4------------ x2
    e|-------------------------
    
    g|---------------------2----------
    d|-----------------2-2---22222----
    a|-555-53200----2-2---------------
    e|-----------2-2------------------
    
    solo (base: c, f, g, c)
    es muy rapido, sino toquen la tonica
    
    g|-------32------------------
    d|---2-5---5-----5-32-33333--
    a|--3-3-----23-5-------------
    e|---------------------------
    
    g|---------------------
    d|-0-1-2-333-1-0-------
    a|--------------1-33--- x2
    e|---------------------
    
    g|-------------------------------------------
    d|-0-1-2-333-1-0-----------------------------
    a
  • +
    ¡Colabora con nosotros!
    Envíanos tu versión de esta canción
  • Tutorial
    HD
    Como tocar Nadie es perfecto de Los Redonditos de Ricota en Guitarra (tutarras.com.ar)
    20:28

Letra de Nadie es perfecto
Un tipo especial este super-boca
experto del re-mundo actual
quizo ir a New York
(quizo ir a las series)
quizo deslizar patés
Le hizo Crack! el hueso al final
que ruido Crack! hasta astillar
le hico crack! el hueso al final
nunca nada especial
Cañito de metal de acero cromo-ñiquel
(toda una oportunidad)
y a nuestro heroe fiel
un ex pilar de Rugby
jarabe de la nuca untó
Le hizo crack!...
Ahora el tipo arropa como un bolchevique
y con la soga al cuello va
Un viejo limon le banca la parada
(el del bisnes ya no es el)
Le hizo crack!...
Un tipo especial!
Le hizo......




[Nadie es perfecto chords][Nadie es perfecto cifra]
© LaCuerda.net · aviso legal · privacidad · es · en · pt · contacto