Acordes de Guitarra » P »Patricio Rey y sus Redonditos de Ricota » Murga purga (Tab)

Murga purga
Patricio Rey y sus Redonditos de Ricota

Letras, Notas, Punteos, Tablaturas y Acordes de Guitarra (Tabs & Chords)

  • Letra y Acordes
    F#
    Buche, sebo, buche
                    F7
    Vos, bola de mierda.
                      F#
    Ya no hay más propina, no, no, no.
    Riff2
    F#
    Un borracho malo,
                 F7
    Carne que camina
                   F#
    Parida con un pedo triste.
    
    Riff2
    
    Sos un moscón zumbón
    Que quedó atrapado
    En un vaso boca abajo.
    
    
  • Tablatura
     LA
    e|---(0(---0-0-0-0-0-0-0-(0)-|----------------------------------------------|
    B|---------8-8-8-8-7-7-7-(5)-|----------------------------------------------|
    G|(2)------------------------|----6-6-6-6------9-9-9-9------7-7-7-7--6--(2)-|
    D|(2)------------------------|(7)-7-7-7-7-(7)--7-7-7-7-(7)--7-7-7-7--7--(2)-|
    A|(0)------------------------|(0)---------------------------------------(0)-|
    E|---------------------------|----------------------------------------------|
    
    Sigue asi...
                    **PARTE B**
    GUITARRA 1:
    e|-------------|-------------|--|--(9-)~---9--(7~)-|
    B|-10--8-(8)~--|-7---8-(8)~--|--|--(10)~--10--(8~)-|
    G|-------------|-------------|X8|--(9-)~---9--(7~)-|
    D|-------------|-------------|--|------------------|
    A|-------------|-------------|--|------------------|
    E|-------------|-------------|--|------------------|
    
    BAJO:
    G|-------------|-------------|--|------------------|
    
  • +
    ¡Colabora con nosotros!
    Envíanos tu versión de esta canción

Letra de Murga purga
Buche, sebo, buche
Vos, bola de mierda.
Ya no hay más propina, no, no, no.
Riff2
Un borracho malo,
Carne que camina
Parida con un pedo triste.
Riff2
Sos un moscón zumbón
Que quedó atrapado
En un vaso boca abajo.
Penas del corazón
Que duran siempre menos
Que las de prisión, chivato.
Riff2
Bueno espero que les sirva, si alguien la tiene el
AGUANTEN LOS REDONDOS!!!!



© LaCuerda.net · Aviso Legal · Privacidad