Acordes de Guitarra » P »Patricio Rey y sus Redonditos de Ricota » Luzbelito y las Sirenas (Tab)
  • Letra y Acordes
     MI5         RE5
       Luzbelito sabe que
    RE5                 LA5
    su destino es de soledad
    MI5                RE5
    ve también que los demás
             DO5                    LA5
    se dan cuenta de la risa que le da.
    
    
       RE5   DO5    SI5     LA5         SOL5          LA5
       Ay!   Ay!   Ay!   que     ri-    sa-    le-    da.
    
        RE5    DO5      SI5     LA5   SOL5    SI5    SOL5   LA5
       Ay!   Ay!   Ay!   que     ri-    sa-    le-    da.
    
    
    
    
       Un par de culos va a patear
    
  • Letra y Acordes
    A:-2--4--5--4--2------2--------
    E:----------------3---2--------
    
    Estrofa:
    MI5        RE5        RE5*
    Luzbelito sabe que su destino es de soledad
    MI5            RE5           DO5              SOL5
    De tambien que los demas se dan cuenta de la risa que le da
    
    
    Ay, ay, ay que risa le da! Riff 1
    Ay, ay, ay que risa le da! Riff 2
    
    MI5                RE5               RE5*
    Un par de culos va a patear de los que le juran más lealtad
    MI5             RE5          DO5       SOL5
    y llorará su corazón como un nazareno del Cuzco
    
    
    Ay! Ay! Ay! ésa lágrima! Riff 1
    
  • Tablatura
    guitarra:   MI
    e|--------------00-(0)----------00-(0)|
    B|--------------00-(0)----------00-(0)|
    G|------------------------------------|X4
    D|------------------------------------|
    A|------------------------------------|
    E|------------------------------------|
    
    BAJO :
    G|------------------------------------|
    D|------------------------------------|
    A|-2--4-5--4-2------------------------|X4
    E|-------------3----0--000--0--0------|
    
    
    VERSO 1:
    
    BAJO:
    G|-----------------------------|------------------------------|
    D|-----------------------------|------------------------------|
    
  • Tablatura
    E--------------------0-0---------------0-0--|
    B--------------------0-0---------------0-0--|
    G-------------------------------------------|
    D--2----------------------2--2---2-2-2------|
    A--2--4--5--4-2-----------2--2---2-2-2------|
    E--0-------------3--------0--0---0-0-0------|
    
    
       MIm       RE
       Luzbelito sabe que
    REm                 LAm
    su destino es de soledad
    MIm               RE
    ve también que los demás
             DO                     LAm
    se dan cuenta de la risa que le da.
    
    
        RE    DO      SI     LAm   SOL  SOL  LAm  LAm
       Ay!   Ay!   Ay!   que     ri-    sa-    le-    da.
    
  • Tab p/Bajo
    Intro
    G|--------------------------|x4
    D|--------------------------|
    A|-2-4-5-4-2----------------|
    E|-----------3------000-000-|
    
    Verso
    G|--------------------------------|
    D|--------------------------------|
    A|-1/7-7-55--5-5----7-7-55-3-3----|
    E|---------------55------------55-|
    
    Coro
    G|-----------------|-----------------|
    D|-----------------|-----------------|
    A|-5-3-2-----------|-5-3-2-----2-----|
    E|-------5-3-3-5-5-|-------5-3---3-5-|
    
    Puente
    G|--------------------------|x2
    D|--------------------------|
    A|-2-4-5-4-2----------------|
    E|-----------3------000-000-|
    
    Verso
    G|--------------------------------|
    D|--------------------------------|
    A|-1/7-7-55--5-5----7-7-55-3-3----|
    E|---------------55------------55-|
    
    Coro
    G|-----------------|-----------------|
    D|-----------------|-----------------|
    A|-5-3-2-----------|-5-3-2-----2-----|
    E|-------5-3-3-5-5-|-------5-3---3-5-|
    
    Solo de Guitarra
    G|----------------------|x4
    D|----------------------|
    A|-77
  • +
    ¡Colabora con nosotros!
    Envíanos tu versión de esta canción

Letra de Luzbelito y las Sirenas
Estrofa:
Luzbelito sabe que su destino es de soledad
De tambien que los demas se dan cuenta de la risa que le da
Ay, ay, ay que risa le da! Riff 1
Ay, ay, ay que risa le da! Riff 2
Un par de culos va a patear de los que le juran más lealtad
y llorará su corazón como un nazareno del Cuzco
Ay! Ay! Ay! ésa lágrima! Riff 1
Ay! Ay! Ay! que risa le dá! Riff 2
La vida sin problemas es matar el tiempo a lo bobo
si un dios bobeta -Bim bum bam! toca tu roncanrol lacrimógeno
Ay! Ay! Ay! ésa lágrima! Riff 1
Ay! Ay! Ay! que risa le dá! Riff 2
Estos ojos...de quién son? de quién son mis deseos de hoy?
y éste insomnio de quién es? (Luzbelito pregunta una y otra vez...)
Ay! Ay! Ay! mis deseos de hoy... Riff 1
Ay! Ay! Ay! mis deseos de hoy... Riff 2
*(con un dedo en el 6º traste, en la 2º cuerda)
Riff 1:
Riff 2:



© LaCuerda.net · aviso legal · privacidad · contacto