Tablatura para Bajo de Patricio Rey y sus Redonditos de Ricota: Luzbelito y las Sirenas
Conexión · Inscripción
Letras y Acordes
Pantalla Completa
Imprimir
Versión Texto
Añadir Favorito
Otras Versiones

Mostrar Diagramas
Desfile Automático
Formato del Texto


Luzbelito y las Sirenas(BAJ)

Patricio Rey y sus Redonditos de Ricota

calidad:
redo0512
AUTOR: Solari-Bellinson
ALBUM: desconocido
Enviado por Sebastián
Intro
G|--------------------------|x4
D|--------------------------|
A|-2-4-5-4-2----------------|
E|-----------3------000-000-|

Verso
G|--------------------------------|
D|--------------------------------|
A|-1/7-7-55--5-5----7-7-55-3-3----|
E|---------------55------------55-|

Coro
G|-----------------|-----------------|
D|-----------------|-----------------|
A|-5-3-2-----------|-5-3-2-----2-----|
E|-------5-3-3-5-5-|-------5-3---3-5-|

Puente
G|--------------------------|x2
D|--------------------------|
A|-2-4-5-4-2----------------|
E|-----------3------000-000-|

Verso
G|--------------------------------|
D|--------------------------------|
A|-1/7-7-55--5-5----7-7-55-3-3----|
E|---------------55------------55-|

Coro
G|-----------------|-----------------|
D|-----------------|-----------------|
A|-5-3-2-----------|-5-3-2-----2-----|
E|-------5-3-3-5-5-|-------5-3---3-5-|

Solo de Guitarra
G|----------------------|x4
D|----------------------|
A|-77-777------22-33-55-|
E|----------55----------|

 |--------------|
 |--------------|
 |-1/222222222--|
 |--------------|

Verso
G|--------------------------------|
D|--------------------------------|
A|-1/7-7-55--5-5----7-7-55-3-3----|
E|---------------55------------55-|

Coro
G|-----------------|-----------------|
D|-----------------|-----------------|
A|-5-3-2-----------|-5-3-2-----2-----|
E|-------5-3-3-5-5-|-------5-3---3-5-|

Puente
G|--------------------------|x2
D|--------------------------|
A|-2-4-5-4-2----------------|
E|-----------3------000-000-|

Verso
G|--------------------------------|
D|--------------------------------|
A|-1/7-7-55--5-5----7-7-55-3-3----|
E|---------------55------------55-|

Coro
G|-----------------|-----------------|
D|-----------------|-----------------|
A|-5-3-2-----------|-5-3-2-----2-----|
E|-------5-3-3-5-5-|-------5-3---3-5-|

Puente (hasta el final)
G|--------------------------|
D|--------------------------|
A|-2-4-5-4-2----------------|
E|-----------3------000-000-|

Escuchá la canción para saber el ritmo
Este fichero es trabajo propio de su transcriptor y representa su interpretación personal de la canción. El material contenido en esta página es
para exclusivo uso privado, por lo que se prohibe su reproducción o retransmisión, así como su uso para fines comerciales.

© LaCuerda.net · Aviso Legal · Privacidad