Acordes de Guitarra » P »Patricio Rey y sus Redonditos de Ricota » Lavi Rap (Tab)

Lavi Rap
Patricio Rey y sus Redonditos de Ricota

Letras, Acordes y Tabs para Guitarra, Bajo y Ukulele

  • G|--------------|--|--------------------|-------------|----------------|--|------------------|--|
    D|--------------|X2|--------------------|-------------|----------------|x2|------------------|X2|
    A|-0-0--3-3--0-0|--|-----0-0-----3-3-0-0|-0-0-3-3-0-0-|-------3-3------|--|------------------|--|
    E|--------------|--|--------------------|-------------|(3)-(5)---(3)(5)|--|(1)-(3)-1-0-(1)(3)|--|
     
    Guitarra:                   Armonicos                   SOL  LA   SOl LA    FA SOL    FA SOL
    E|--------------|--|--------------------|-------------|----------------|--|------------------|--|
    B|--------------|--|--------------------|-------------|----------------|--|------------------|--|
    G|--------------|--|----a---------------|-------------|----------------|X2|------------------|X2|
    D|--------------|--|-a-<5>------a-------|------------/|(5)-(7)---(5)(7)|--|------------------|--|
    A|--------------|--|<5>------a-<7>------|------------/|(5)-(7)---(5)(7)|--|(3)-(5)-----(3)(5)|--|
    E|--------------|--|--------<7>---------|-------------|(3)-(5)---(3)(5)|--|(1)/(3)-1-0-(1)(3)|--|
    
    
    sigue asi...
    guitarra:
          SOLm LA                        RIFF A                    1era vuelta   2da vuelta
    E|-------------------|--|-----------------------------------------|-----|--|-------|
    B|-------------------|--|-----------------------------------------|-----|--|-------|
    G|-------------------|X2|-----------------------------------------|-77~~|--|-------|
    
  • +
    ¡Colabora con nosotros!
    Envíanos tu versión de esta canción

Letra de Lavi Rap
sigue asi...
guitarra:
BAJO:
VERSO 1:
Guitarra 1:
GUITARRA 2:
BAJO:
El morta, huesito y mister Ed
van a saltar otra vez sin red
se enrollan, se baten, se agitan y mojan.
ESTRIBILLO 1
en Lavi-Rap
Lavi Rap
GUITARRA 1:
BAJO:
GUITARRA 2:
VERSO 2: (Igual)
Guitarra 1:
Al comprar el 'pajarito'
debieron preguntar, tal vez,
cuanto costaba la linda jaula.

ESTRIBILLO 2:
GUITARRA 1:
BAJO:
GUITARRA 2:
del Lavi-Rap
Lavi Rap
Lavi Rap
Lavi Rap
INTERMEDIO
RIFF A ]X2
guitarra:
BAJO:
VERSO 3 (igual 1)
Con anabolicos asteroides
tragan y esperan para
enjuagar
al todopoderoso dios
ESTRIBILLO 3 (igual 1)

en Lavi-Rap
Lavi Rap
VERSO 4 (igual)
por minas y por guita
(no más bohemia todo
es chusmear)
y tener, todo clarito
ESTRIBILLO 4 (igual al 2)
del Lavi-Rap
Lavi Rap
Lavi Rap
Lavi Rap

Guitarra:
INTERMEDIO
RIFF A ]X2
guitarra:
BAJO:
VERSO 5 (igual 1)
Si el pajarito da la buena
van al Tortoni o al castelar
y suman un buen
baño turco

ESTRIBILLO 5 (igual 1)

en Lavi-Rap
Lavi Rap
VERSO 6 (igual)
El ultimo show no murió
casi nadie,
se fue vacio el furgon de
los fiambres
cubrieron la mierda de
azúcar negra

ESTRIBILLO 6 (igual al 2)
del Lavi-Rap
Lavi Rap
Lavi Rap
Lavi Rap
FINAL. (con Riff A)
guitarra:
BAJO:
y final asi...
GUITARRA :
BAJO:
fin.




[Lavi Rap chords][Lavi Rap cifra]
© LaCuerda.net · aviso legal · privacidad · es · en · pt · contacto
DINAMICO