Acordes de Guitarra » P »Patricio Rey y sus Redonditos de Ricota » Estas frito angelito (Tab)
  • Tablatura
    (D#7)
    e--------------
    B-------0------
    G-----1---1-3--
    D-(1)----------
    
    Riff 2
    (D#7)
    e-----------------------
    B-----------------------
    G-1-------1-------------
    D---4-2-1---4-2-1-2-4---
    
    Intro Con D#7 RIFF1 RIFF2
    
    E
    tu naturaleza te quiere.....
    
    D#7 (como intro)
    estas frito angelito
    
  • Tablatura
       RE #
    e|----------------------------------------------|
    B|----------------------------------------------|
    G|--8-8-8--%--8-8-8--%---8-8-8------------------|X3
    D|--8-8-8-----8-8-8------8-8-8----6--8--6-(7)~--|
    A|--6-6-6-----6-6-6------6-6-6------------------|
    E|----------------------------------------------|
    
    BAJO:
    G|-----------------------------------------|
    D|------6-8------6-8-------6-8-------8--6--|X3
    A|--6-6------6-6------6-6--------6-6-------|
    E|-----------------------------------------|
    
    GUITARRA 2:
    e|------------|--|-----------------|---|------------------------|
    B|---silenci0-|--|-----------------|---|------------------------|
    G|-----x------|--|-----------------|-#-|------------------------|
    D|--2-vueltas-|--|-----------------|---|------------------------|
    A|---de-Riff1-|--|-/-6-6-66-4------|---|-/-6-6--6--4-------(4)--|
    
  • Tab p/Bajo
    Intro
    G|------------------------------|x3
    D|------------------------------|
    A|-66-6h5-66-6h5-66-6h5-6-9-7-6-|
    E|------------------------------|
    
    Verso
    G|---------------------|x4
    D|---------------------|
    A|-77-5-77-5-77-5-77-6-|
    E|---------------------|
    
    Coro
    G|------------------------------|x3
    D|------------------------------|
    A|-66-6h5-66-6h5-66-6h5-6-9-7-6-|
    E|------------------------------|
    
    Verso
    G|---------------------|x4
    D|---------------------|
    A|-77-5-77-5-77-5-77-6-|
    E|---------------------|
    
    Coro
    G|------------------------------|x3
    D|------------------------------|
    A|-66-6h5-66-6h5-66-6h5-6-9-7-6-|
    E|------------------------------|
    
    Solo
    G|---------------------|x3
    D|---------------------|
    A|-77-5-77-5-77-5-77-6-|
    E|---------------------|
    
    Coro
    G|------------------------------|x3
    D|------------------------------|
    A|-66-6h5-66-6h5-66-6h5-6-9-7-6-|
    E|------------------------------|
    
    Verso
    G|---------------------|x4
    D|------------------
  • +
    ¡Colabora con nosotros!
    Envíanos tu versión de esta canción

Letra de Estas frito angelito
Riff 2
tu naturaleza te quiere.....
estas frito angelito
estas frito angelito
hay buitres en la tele......
estas frito angelito
estas frito angelito
D#7 (como intro)
estas frito angelito
estas frito angelito
camellos prestigiosos.......
estas frito angelito
estas frito angelito
vas a poner contacto........
estas frito angelito
estas frito angelito
estas frito angelito
estas frito angelito
estas frito angelito
estas frito angelito.
AGUANTEN LOS REDONDOS!!!



© LaCuerda.net · aviso legal · privacidad · contacto
DINAMICO