Acordes de Guitarra » P »Patricio Rey y sus Redonditos de Ricota » Es hora de levantarse querido (Tab)

Es hora de levantarse querido
Patricio Rey y sus Redonditos de Ricota

  • Letra y Acordes
      Am        G             Am        G
    Soñaste angelitos muy profesionales
       Am         G        Am                 G
    Que  iban al grano jugando a los gangsters
         Dm                Em7
    Dormis colgado en la rama
            Am
    Que soldaste con primor
          Dm         Em7           G
    Y el carozo del asunto es tu temor
    
    Es Solo tu temor que es tan puro y tan elegante
    Sentado en tu dedo muy almibarado
    ¡ A vivir que son dos días ¡
    ( descolgados del laurel )
    Nadie quiere tu secreto más que vos...
    Nadie más que vos
    
    Solo: [Dm Am ] x4 G [ F Dm F C ] x2
    
    
  • Tablatura
                  Riff A
    E|--------||-------------------------------------||
    B|--------||-------------------------------------||
    G|--7-7-7-||-7/9--9--7--9--7--9--7-7-7-7-7----7--||X4
    D|--5-5-5-||-5/7--7--5--7--5--7--5-5-5-5-5----5--||
    A|--------||--------------------------------7----||
    E|--------||-------------------------------------||
    
    BAJO:
    G|--------||-------------------------------------||
    D|--------||-------------------------------------||X4
    A|--------||-------------------------------------||
    E|--------||---5-----3--5--3--5--3-3-3-3-3--0-3-4||
    
    
    en la 3er vuelta de riff a 
    GUITARRA 2 HACE:
    
    E|----8--7--5----5---------8-7-5--(5)----||
    B|------------8------5-8-----------------||
    
  • Tablatura
            RE            LA         RE           LA
    E|---------------|----------|-(5)-------|------------|
    B|---------------|----------|-(5)-7-----|-7----------|
    G|-----5b---7b-5-|-8b-5-----|-----7-5---|-7-7-5h(7b)-|
    D|-5h7----7------|------(7)-|---------7-|------------|
    A|---------------|----------|-----------|------------|
    E|---------------|----------|-----------|------------|
    
               RE                 LA
    E|--------------------|------------------|
    B|-10---8b-10-8-------|------------------|
    G|----9---------7h9p7-|-7----8b-7--------|
    D|--------------------|---10------10-(7)-|
    A|--------------------|------------------|
    E|--------------------|------------------|
    
                     SOL                 FA
    E|-----|-----------------------|-------------|
    B|-----|-----------------5-7-5-|-.-.-.-.-.-.-|
    G|-----|---------5-4-5/7-5-7-5-|-7-7-7-7-7-7-|
    
  • Tablatura
    Dm          Em7            Am                                   Dm                     Em           G
    
    1-8-7-----------------8-7---------------I----------8------I---10-10-----I----12-12-I----7-----------
    2-----10-8-10--------------10-8---------I-------------10-I---10-10-----I----12-12-I-------8--8-----
    3---------------9p7----------------------I-----7h9--------I-------------I---------- -I--5/7-----------
    
    
    Nadie quiere tu secreto mas que vos... nadie mas que vos...
    
    Solo Dm Am  x4 / G /  F Dm F C  x2
    
    
    1----------------------------------------------------5-----------5-------5--------------------
    2---------------------------10-------------------------5--8(10)----8(10)----8p5-----5---5-5--
    3------5----7p5--7(8)-5-----9--7-5----7-7h8-5-7(9)------------------------------7----7------
    4--5-7---7--------------7-----------7--------------------------------------------------------
    5---------------------------------------------------------------------------------------------
    6---------------------------------------------------------------------------------------------
    
    1---------------------------------------------------------------------------------------------
    
  • Tab p/Bajo
    Intro
    G|-----------------------|x4 |-----------------------------|x2
    D|-----------------------|   |---4-7-----6-9---------------|
    A|-----------------------|   |-5-----5-7-----7-------------|
    E|-3-5-3-5--5--333-44-55-|   |-----------------5--55-5-6-7-|
    
    Verso
    G|-----------------------|x4
    D|-----------------------|
    A|-----------------------|
    E|-3-5-3-5--5--333-44-55-|
    
    Coro
    G|------------------------------------|
    D|---4-7-----6-9----------------------|
    A|-5-----5-7-----7---4--4-5-6-7-------|
    E|-----------------5------------5-6-7-|
    
     |-------------------------------|
     |---4-7-----6-9-----------------|
     |-5-----5-7-----7---------------|
     |------------------3--33--3--33-|
    
    Verso
    G|-----------------------|x4
    D|-----------------------|
    A|-----------------------|
    E|-3-5-3-5--5--333-44-55-|
    
    Coro
    G|------------------------------------|
    D|---4-7-----6-9----------------------|
    A|-5-----5-7-----7---4--4-5-6-7-------|
    E|-----------------5------------5-6-7-|
    
     |---
  • +
    ¡Colabora con nosotros!
    Envíanos tu versión de esta canción

Letra de Es hora de levantarse querido
Soñaste angelitos muy profesionales
Que iban al grano jugando a los gangsters
Dormis colgado en la rama
Que soldaste con primor
Y el carozo del asunto es tu temor
Es Solo tu temor que es tan puro y tan elegante
Sentado en tu dedo muy almibarado
¡ A vivir que son dos días ¡
( descolgados del laurel )
Nadie quiere tu secreto más que vos...
Nadie más que vos
Tenes la liciencia para envenenarnos,
Pensas con audacia consejos muy agrios
Un caníbal desdentado , enseñando a masticar
Tu negocio es muy difícil de explicar
Y fácil de enseñar
Fácil de enseñar
Si dormiste bien
Riff :
Espero que les sirva
Cualquier consulta hágansela a Skay
Aguanten Los Redondos !!
No se olviden de Walter Bulacio



© LaCuerda.net · aviso legal · privacidad · contacto