Acordes de Guitarra » P »Patricio Rey y sus Redonditos de Ricota » El regreso de Mao (Tab)

El regreso de Mao
Patricio Rey y sus Redonditos de Ricota

Letras, Acordes y Tabs para Guitarra, Bajo y Ukulele

  • F#m - E-F#m-E-D-E
    
     
    F#m D E         F#m   D   E
    Se adelantó el regreso de Mao
    
    F#m D E         F#m   D   E
    el hijo de Mao, el mao blanCO
    F#m D E         F#m   D   E
    buena comida china le da gases
    
     F#m D E         F#m   D   E
    y todo va muy bien hasta que unas placas
    
     F#m D E         F#m   D   E
    producto de la accion de producto te matan
    
    Estribillo
    Bm7   C#m7            Bm7   C#m7 
         Con la granada ¡Ay! entre las tetas
    
  • INTRO
    
    E|---------------------------|
    B|-17-14--------12-9---9-----|
    G|-------14----------9---11--|
    D|----------16---------------|
    A|---------------------------|
    E|---------------------------|
    
    
    
    SOLO
    
    E|---------------------------|---------------------------|
    B|-17-14--------12-9---9-----|---------10----------------|
    G|-------14----------9---11--|-13~~-13----13-11-9----9---|
    D|----------16---------------|--------------------11-----|
    A|---------------------------|---------------------------|
    E|---------------------------|---------------------------|
    
    
    
    E|-------------------|----------(12)------12~-|
    B|-10-10-10----------|----10-12b----12-10-12~-|
    G|----------11-11-11-|-11---------------------|
    D|-------------------|------------------------|
    A|-------------------|------------------------|
    E|-------------------|------------------------|
    
       **SP**
    
    E|-----14-14~--(14)----14-17b-|-17-14----14------14-------|
    B|---15-------------14--------|-------14----17b-----17-14-|
    G|-16----------------
  • -----
    
    GUITARRA:
       FA#  MI  FA#  MI    RE      MI
    E|----|---|----|---|-------|-------|
    B|----|---|----|---|-------|-------|
    G|-11-|-9-|-11-|-9-|-7-7-7-|-9-9-9-|
    D|-11-|-9-|-11-|-9-|-7-7-7-|-9-9-9-|
    A|--9-|-7-|--9-|-7-|-5-5-5-|-7-7-7-|
    E|----|---|----|---|-------|-------|
    
    BAJO:
       FA#  MI  FA#  MI    RE      MI
    G|----|---|----|---|-------|-------|
    D|----|---|----|---|-------|-------|
    A|----|---|----|---|-5-5-5-|-7-7-7-|
    E|-2--|-0-|-2--|-0-|-------|-------|
    
    
    1er VERSO:
    
  • +
    ¡Colabora con nosotros!
    Envíanos tu versión de esta canción

Letra de El regreso de Mao
Se adelantó el regreso de Mao
el hijo de Mao, el mao blanCO
buena comida china le da gases
y todo va muy bien hasta que unas placas
producto de la accion de producto te matan
Estribillo
Con la granada ¡Ay! entre las tetas
mi amor se arrastra y espina alla arriba ay..
(Riff)
Pobre nena rasgada de cutis blanco
otra vez se pesco el resfrio boliviano
confunde la palabra soldado y bandido
flotando en un zampán con mujeres iguales
a hombres iguales a un blanco herido.
ESTRIBILLO
Calores de halcones, dragones frios
quemando cohetes, fuegos de artificio
China significa reino del medio
sendero luminoso, laja cristalina
que adelantó el regreso de mao
ESTRIBILLO
UN SALUDO PARA SEBA G , UN GRAN AMIGO Y FANA RICOTERO
VIOLENCIA ES MENTIR!!!!!!!!!




[El regreso de Mao chords][El regreso de Mao cifra]
© LaCuerda.net · aviso legal · privacidad · es · en · pt · contacto
DINAMICO