Acordes de Guitarra » P »Patricio Rey y sus Redonditos de Ricota » El árbol del gran bonete (Tab)

El árbol del gran bonete
Patricio Rey y sus Redonditos de Ricota

Letras, Acordes y Tabs para Guitarra, Bajo y Ukulele

  •    [DO-MI7-FA]
    
       Volveré a sumergirme, Señor 
    en este rio loco?
       Tiene usted para mi alguna luz
    en esta noche eterna?
    
       Ya me hartó la función
    en la "Estrella del Sur".
    
       Final: Riff 2 
    
    
    RIFF1
    E-------------------------------------------------|
    B-------------------------------------------------|
    G-------------------------------------------------|
    D--------3-----------3---2--0------------------3--|
    A---3--5-----3---3-5----------3--2--0--3---3-5----|
    E-1----------1-------------------------1----------|
    
  • Intro   Riff (F5 E5 A5 F5)
    
    Riff2 (E5 B5 F5 F5/C)
    Su cuchillo de herrero afilo
    el señor de los cielos
    miren lo que este bicho logro
    al confiar en sus sueños.
    
    Con Riff 
    Soy jocker comodin
    en la estrella del sur.
    
    Sacudio el arbolcayo
    un fruto dulce muy raro
    tropece con mis ganglios 
    y vi que morderlo era caro.
    
    Soy un jocker de burlon
    de la estrella del sur
    
    
  • e|-------------|---|-------------|-----------|
    B|-------------|---|-------------|-----------|
    G|-------------|---|-------------|-----------|
    D|--3------3---|-X2|--2-0--------|--3-------3|
    A|----3-5------|---|------3-2-0--|-----3--5--|
    E|-------------|---|-------------|-----------|
    
    GUITARRA 2: [FA- MIm FA]
    
    BAJO:
    G|-------------|---|-------------|-----------|
    D|--3------3---|-X2|--2-0--------|--3-------3|
    A|----3-5------|---|------3-2-0--|-----3--5--|
    E|-------------|---|-------------|-----------|
    
    
    VERSO 1:
    GUITARRA 1:  FA
    e|-----------------------------|
    B|-----------------------------|
    
  • e|-------------|-----------|----------------|-------------|
    B|--------3----|------3----|-5~-3~----------|-------3-----|
    G|-----5~------|----5------|-------5--4--2--|----5~-------|
    D|--3~-------3~|-3~------3-|----------------|-3~-------3~-|
    A|-------------|-----------|----------------|-------------|
    E|-------------|-----------|----------------|-------------|
    
    GUITARRA 2: [FA- MIm FA]
    
    BAJO:
    G|-------------|---|-------------|-----------|
    D|--3------3---|-X2|--2-0--------|--3-------3|
    A|----3-5------|---|------3-2-0--|-----3--5--|
    E|-------------|---|-------------|-----------|
    
    
    VERSO 1:
    GUITARRA 1:  FA
    e|-------------------------|
    B|-------------------------|
    
  • |----------------------------------------------|
    |------------------------------13-13-12-1310~--|
    |-------5--7~~------------1210-----------------|
    |---------7------------------------------------|
    |----------------------------------------------|
    |----------------------------------------------|
    
    
    -------------------------------------------5----------|
    -------10x10x-13br-10-----------------------85--------|
    ---------------------1210---------------7br----7--5---|
    --------------------------1212~--------------------7~-|
    ------------------------------------------------------|
    ------------------------------------------------------|
    
    
    solo de guitarra :
    
    |---------------------|---------------------------|
    |-12b-12--10--12------|-13b--13-12-13---12h13p-12-|
    
  • Intro
    G|----------------------------------|
    D|-3----3--3----3--2-0-------3----3-|
    A|---3-5-----3-5------3-2-0----3-5--|
    E|----------------------------------|
    
    Verso
    G|--------------------------|x2
    D|--------------------------|
    A|----2-2---3-3---2-3-2---3-|
    E|-1-1---1-1---1-1-----1-1--|
    
    Coro ('Soy un Jocker...')
    G|----------------------------------|
    D|-3----3--3----3--2-0-------3----3-|
    A|---3-5-----3-5------3-2-0----3-5--|
    E|----------------------------------|
    
    Verso
    G|--------------------------|x2
    D|--------------------------|
    A|----2-2---3-3---2-3-2---3-|
    E|-1-1---1-1---1-1-----1-1--|
    
    Coro ('Soy un Jocker...')
    G|----------------------------------|
    D|-3----3--3----3--2-0-------3----3-|
    A|---3-5-----3-5------3-2-0----3-5--|
    E|----------------------------------|
    
    Solo de Trompeta
    G|---------------|x4
    D|---------------|
    A|---------------|
    E|-(5)-5(6)--(7)-|
    
    Solo de Guitarra
    G|------|x4
    D|------|
    A|------|
    E|-1--3-|
    
    Solo de Trompeta
    G|-------
  • +
    ¡Colabora con nosotros!
    Envíanos tu versión de esta canción
  • Tutorial
    HD
    Explicado - Como tocar "El árbol del gran bonete" de Los Redondos en el bajo tutorial#310
    14:06

Letra de El árbol del gran bonete
Volveré a sumergirme, Señor
en este rio loco?
Tiene usted para mi alguna luz
en esta noche eterna?
Ya me hartó la función
en la "Estrella del Sur".
Final: Riff 2
RIFF1
RIFF2
ACORDES




[El árbol del gran bonete chords][El árbol del gran bonete cifra]
© LaCuerda.net · aviso legal · privacidad · es · en · pt · contacto