Acordes de Guitarra » P »Patricio Rey y sus Redonditos de Ricota » Doctor Saturno (Tab)

Doctor Saturno
Patricio Rey y sus Redonditos de Ricota

Letras, Acordes y Tabs para Guitarra, Bajo y Ukulele

  • e-------------||-----------------|
    B-------------||-----------------|
    G-----10------||-----------------| 2 veces
    D--12----10-9-||------10-12------|
    A-------------||-10-9-------10-9-|
    E-------------||-----------------|
    
    RIFF 2:
    e--------------------------------------------------15p13----------|
    B-------12h13p12-----------------------12h13p12----------15p13h15-|
    G----10--------------12-10h12p10----12----------------------------|
    D-12--------------12-------------12-------------12----------------|2 veces
    A-----------------------------------------------------------------|
    E-----------------------------------------------------------------|
    
    RIFF 3:
    e-----------------------------------------------------------------
    B-----------------------------------------------------------------
    G----10-12-13-12-10----10-12-13--12----10-12-13-12-10----10-12-13estira
    D-12----------------12--------------12----------------12-----------
    
  •    |         RIFF A               |  |                      Riff B                            |
    e|-----------|--|------------------||-------------|-------------|------------|-----15p13--------|
    B|-----------|--|------------------||-----12h13p12|-------------|----12h13p12|----------15p13-15|
    G|---10------|X3|------------------||---10--------|--12-10h12p10|--12--------|------------------|
    D|-12---10-9-|--|------10-12-9-----||-12----------|12-----------|12----------|(12)~-------------|
    A|-----------|--|-10-8---------(8)-||-------------|-------------|------------|------------------|
    E|-----------|--|------------------||-------------|-------------|------------|------------------|
    
    *EL BAJO ESTA AFINADO EN RE EN LA 4ta CUERDA
    G|------------|----------|---------|------------------|---|
    D|------------|----------|---------|------------------|---|
    A|------------|----------|---------|------------------|X2-|
    D|--0--(3)-33-|--0--5-3--|-0--5-3--|-0--0-3-0-3-0-3-0-|---|
    
    GUITARRA 2: (hace esto durante la intro... con algun efecto raro)
    e|---------------------|
    B|---------------------|
    G|---------------------|VARIAS VECES
    D|----5--3-------------|
    A|-5-------------------|
    
  • Intro
    G|------------------|x4
    D|------------------|
    A|-5-88-5-88-5-88-5-|
    E|------------------|
    
    Verso
    G|-----------------------------|x2
    D|--3-4-5--3-4-5--3-4-5--3-4-5-|
    A|-5------5------5------5------|
    E|-----------------------------|
    
    Puente
    G|------------------|
    D|------------------|
    A|-5-88-5-88-5-88-5-|
    E|------------------|
    
    Coro
    G|------------------|
    D|------------------|
    A|-5-88-5-88-5-88-5-|
    E|------------------|
    
    Verso
    G|-----------------------------|x2
    D|--3-4-5--3-4-5--3-4-5--3-4-5-|
    A|-5------5------5------5------|
    E|-----------------------------|
    
    Puente
    G|------------------|
    D|------------------|
    A|-5-88-5-88-5-88-5-|
    E|------------------|
    
    Coro
    G|------------------|
    D|------------------|
    A|-5-88-5-88-5-88-5-|
    E|------------------|
    
    Verso
    G|-----------------------------|x1
    D|--3-4-5--3-4-5--3-4-5--3-4-5-|
    A|-5------5------5------5------|
    E|-----------------------------|
    
    Verso 2 ('Vinos gruesos...')
    G|-------------|------
  • +
    ¡Colabora con nosotros!
    Envíanos tu versión de esta canción

Letra de Doctor Saturno
RIFF 2:
RIFF 3:
RIFF 4:
RIFF 5:
RIFF 2
Estoy hasta la pasta
De misas cómicas, mal.
A prueba de bobos y a las tres en casa.
¿Querés creer? Oh, no.
RIFF 3
RIFF 4
Dr. Saturno, dame un turno.
Te pido una mejoría.
RIFF 2
Estoy meando la puerta
En tu cueva, doctor de amor.
Los remos muy pinchados
A la moda del rock n’ roll.
RIFF 3
RIFF 4
Me cago en mis huesos que gastan la pana
Mojada en vinagre de nostalgias.
RIFF 2
Voy ciego, tonteando
En la Orquesta Antibalas, no, no.
Vinos gruesos, mal templados
Y ecos de Reputalandia trip.
(Silencio)
No marcho en mi vieja murga
Y en las calles no me muestro más.
RIFF 2
Están mis muertos, tan, tan lejos
De la pantalla en que vos te mirás.
RIFF 3
RIFF 4
El hígado crece, el cerebro envejece
Y hay algo muy raro en mi plato.
RIFF 2
Saturno, dame un turno.
Yo espero, con vos, mejorar.
Dulce cadena, dulce condena.
Dios es todo, no puede progresar.
RIFF 3
RIFF 4
Dr. Saturno, dame un turno.
Te pido una leve mejoría.
FINAL: [RIFF 4]x3 + [RIFF 1]




[Doctor Saturno chords][Doctor Saturno cifra]
© LaCuerda.net · aviso legal · privacidad · es · en · pt · contacto