Acordes de Guitarra » P »Patricio Rey y sus Redonditos de Ricota » De esos polvos futuros lodos (Tab)

De esos polvos futuros lodos
Patricio Rey y sus Redonditos de Ricota

Letras, Acordes y Tabs para Guitarra, Bajo y Ukulele

  • e|------------------------------|
    B|-----------------------8-8----|
    G|----5----7-7------5-----------|
    D|--5---5---------5---5---------|
    A|------------------------------|
    E|------------------------------|
    
    
    
    Em
    El perro bobi es un servicio de amor
    Bm
    a todo rock,
    Em
    canta como un león, pero es el más salmón
    Bm
    de la ciudad,
    
    Am                         Em (riff)
    Bailen lo que bailen los demás,
    
  • Em
    El perro bobi es 
                        Bm
    un servicio de amor a todo rock,
    Em
    canta como un león,
                          Bm
    pero es el más salmón de la ciudad,
    
    C                           Em
    Bailen lo que bailen los demás,
    C                           Em
    bailen lo que bailen los demás.
    
    
    
    Chunga combinación de polvos
    que darán lodo después,
    mágico inter - terror más arma
    blanca en cruda pasión,
    
  • e|-----------------------------------------------------------------------||
    B|----------------------------9-11-9--------------------9-11-9-----------||
    G|---8-6---8-6-------8h10h11---------11-10-8---8h10h11---------11-10-----||
    D|-----------------------------------------------------------------------||
    A|-------9---------------------------------------------------------------||
    E|-----------------------------------------------------------------------||
                                                                             ||(X2)
    e|--------------------------------------------------|                    ||
    B|----------------11-9----10b--9----11-9----10b-----|                    ||
    G|---6-8---6-8---------11--------11------11---------|                    ||
    D|-------8------------------------------------------|                    ||
    A|--------------------------------------------------|                    ||
    E|--------------------------------------------------|                    ||
    
    (2)
    e|-------------------------------------------------------|
    B|---9-7------9-7------------9-7-------9-7------9s11~----|
    G|-------10-8-----10-8-8~---------10-8-----10-8----------|
    D|-------------------------------------------------------|
    A|-------------------------------------------------------|
    
  • Intro:
    
    e|--------------------------|-------------------------------------------------|
    B|--(5)---(3)-----(5)---(3)-|--5-5h7h8-10-12-10-8-7----5-5h7h8-10-12-10-8-7---|
    G|--------------------------|-------------------------------------------------|
    D|--------------------------|-------------------------------------------------|
    A|--------------------------|-------------------------------------------------|
    E|--------------------------|-------------------------------------------------|
    
    e|--------------------------|---------------------------------------|
    B|--(3)---(5)-----(3)---(5)-|--12bp10-8-12b-10---12bp10-8-12b-------|
    G|--------------------------|---------------------------------------|
    D|--------------------------|---------------------------------------|
    A|--------------------------|---------------------------------------|
    E|--------------------------|---------------------------------------|
    
    e|--------------------------|---------------------------------------------
  • +
    ¡Colabora con nosotros!
    Envíanos tu versión de esta canción

Letra de De esos polvos futuros lodos
El perro bobi es
un servicio de amor a todo rock,
canta como un león,
pero es el más salmón de la ciudad,
Bailen lo que bailen los demás,
bailen lo que bailen los demás.
Chunga combinación de polvos
que darán lodo después,
mágico inter - terror más arma
blanca en cruda pasión,
Caguen lo que caguen los demás,
caguen lo que caguen los demás.

Una pápela por el walkman,
que chorizó tu hermanito
el perro cruzó los pies,
su sonrisa ofertó (y la vendió),
Ladren lo que ladren los demás,
ladren lo que ladren los demás.

El perro bobi es...
Si alguien sabe el punteo de la intro
que me lo mande por favor.
En el estribillo no sé si hace C Em
o C D Em.
[C]Ladren, lo que [D]ladren los dem[Em]ás.
Pero queda mejor sin D.
Saludos,
Angel Olivera
Mendoza - Argentina
Aguanten los Redondos!




[De esos polvos futuros lodos chords][De esos polvos futuros lodos cifra]
© LaCuerda.net · aviso legal · privacidad · es · en · pt · contacto
DINAMICO