Tablatura para Guitarra de Patricio Rey y sus Redonditos de Ricota: De esos polvos futuros lodos
Conexión · Inscripción
Letras y Acordes
Pantalla Completa
Imprimir
Versión Texto
Añadir Favorito
Otras Versiones

Mostrar Diagramas
Desfile Automático
Manipular Acordes
Formato del Texto


De esos polvos futuros lodos(TAB)

Patricio Rey y sus Redonditos de Ricota

calidad:
redo0122
AUTOR: Beilinson-Solari
ALBUM: Inedito
Enviado por ignacio, basado en Nico
Esta versión es la de Paladium en el '86
En el estribillo se puede hacer G#m o G#5.
Los acordes originales del tema son: D#m - A#m - G#m
El riff del principal es:

(1)
e|-----------------------------------------------------------------------||
B|----------------------------9-11-9--------------------9-11-9-----------||
G|---8-6---8-6-------8h10h11---------11-10-8---8h10h11---------11-10-----||
D|-----------------------------------------------------------------------||
A|-------9---------------------------------------------------------------||
E|-----------------------------------------------------------------------||
                                                                         ||(X2)
e|--------------------------------------------------|                    ||
B|----------------11-9----10b--9----11-9----10b-----|                    ||
G|---6-8---6-8---------11--------11------11---------|                    ||
D|-------8------------------------------------------|                    ||
A|--------------------------------------------------|                    ||
E|--------------------------------------------------|                    ||

(2)
e|-------------------------------------------------------|
B|---9-7------9-7------------9-7-------9-7------9s11~----|
G|-------10-8-----10-8-8~---------10-8-----10-8----------|
D|-------------------------------------------------------|
A|-------------------------------------------------------|
E|-------------------------------------------------------|




D#m El perro bobi es un servicio de amor
A#m a todo rock,
D#m canta como un león, pero es el más salmón
A#m de la ciudad,
G#m D#m Bailen lo que bailen los demás,
G#m D#m bailen lo que bailen los demás. Arreglo de estribillo: e---------------------------------------| B|--------------------------------------| G|--------------------------------------| al final hace esto: D|-------------------------8-8----------| A|-----6----9-9-------6-----------------| A|----9p8p6------ y cae en D#m E|---6---6----------6---6---------------|
D#m Chunga combinación de polvos que darán
A#m lodo después,
D#m mágico inter terror más arma blanca en
A#m cruda pasión.
G#m D#m Ladren lo que ladren los demás,
G#m D#m Ladren lo que ladren los demás. Puente + riff(2) e|-------------------------------------------------------------|| B|----------------------------(12)-10--------------------------|| G|---------9-(12)-11--------9---------------9-(12)-12p11p9~----|| (X2) D|---10-12------------10-12-----------10-12--------------------|| A|-------------------------------------------------------------|| E|-------------------------------------------------------------||
D#m Una papela por el walkman que chorizó
A#m tu hermanito
D#m el perro cruzó los pies, su sonrisa ofertó
A#m (y la vendió).
G#m D#m Callen lo que callen los demás,
G#m D#m Callen lo que callen los demás. (riff 1 Y 2)
D#m El perro bobi es un servicio de amor
A#m a todo rock,
D#m canta como un león, pero es el más salmón
A#m de la ciudad,
G#m D#m Callen lo que callen los demás,
G#m D#m Callen lo que callen los demás.
G#m - D#m
Este fichero es trabajo propio de su transcriptor y representa su interpretación personal de la canción. El material contenido en esta página es
para exclusivo uso privado, por lo que se prohibe su reproducción o retransmisión, así como su uso para fines comerciales.

© LaCuerda.net · Aviso Legal · Privacidad