Acordes de Guitarra » P »Patricio Rey y sus Redonditos de Ricota » Blues del noticiero (Tab)

Blues del noticiero
Patricio Rey y sus Redonditos de Ricota

Letras, Acordes y Tabs para Guitarra, Bajo y Ukulele

  •    MI                                LA                                           MI7
    e|-----------------------------------------------------------------------9-----|----------------|
    B|-----------------------------------------8-(10b)-10-8----------------8---(8)-|---10-9-10p9----|
    G|-6^7^6^7^6^7^6^7^6^7^6^(7~)-----------/9--------------(9)---------/9---------|-9--------------|
    D|-----------------------------------------------------------------------------|----------------|
    A|-----------------------------------------------------------6-(7)-------------|----------------|
    E|----------------------------3-4-(5)------------------------4-(5)-------------|----------------|
            MI7                                                              
    e|------------------------------------------|--------------------------|-----------------10----|
    B|--9/12--10-9------------------------------|--------------------------|----8----8----11b------|
    G|-------------9p7---7----------------------|------------------9p7-9~~-|-8b---9----9-----------|
    D|-----------------9---9-8--7/5-7-5---------|--------(6~)--6/7---------|-----------------------|
    A|-----------------------------------7-(5)~-|----5-7-------------------|-----------------------|
    E|------------------------------------------|--7-----------------------|-----------------------|
      SI7                                      LA7
    e|----10----10-----10----10-----10-------|-------12------12------|------------------------------|
    B|-11b---11b----11b---11b----11b--(11b)r-|-12-15----15b-----15-12|------------------------------|
    G|---------------------------------------|-----------------------|14-14-12-------(15b)-15b-15b--|
    D|---------------------------------------|-----------------------|---------14-17----------------|
    A|---------------------------------------|-----------------------|------------------------------|
    
  • +
    ¡Colabora con nosotros!
    Envíanos tu versión de esta canción

Letra de Blues del noticiero
turnaround de blues
VERSO 1:
Se muere escuchando el noticiero
donde cuentan cómo le dan casa.
Se muere mirando el noticiero
donde cuentan cómo le dan casa
GUITARRA:
Fill 1 Fill 2 fill3
fill4
PM..................
ESTribillo
Paisaje transmitido entre los nervios,
mientras le alcanza.
GUITARRA:
PM....................................................
BAJO: Si7
BAJO:
GUitarra (solo)

mas rapido
VERSO 2:
GUITARRA 1: fill 5 fill6
Se muere escuchando el noticiero
Fill 7 fill8
Se muere escuchando el noticiero
donde cuentan cómo le dan casa.
Se muere mirando el noticiero
FIll8
donde cuentan cómo le dan casa
ESTRIBILLO final
GUITARRA:
BAJO:

Paisaje transmitido entre los nervios,
LA7 silencio [turnaround3] final
mientras le alcanza.
FIN..
|




[Blues del noticiero chords][Blues del noticiero cifra]
© LaCuerda.net · aviso legal · privacidad · es · en · pt · contacto
DINAMICO