Acordes de Guitarra » P »Patricio Rey y sus Redonditos de Ricota » Aquella solitaria vaca cubana (Tab)

Aquella solitaria vaca cubana
Patricio Rey y sus Redonditos de Ricota

  • Letra y Acordes
    e|----------------|-----------------|
    B|----------------|-----------------|
    G|-------------8~-|-----------------|
    D|---7-7-6-7-9----|---7-7-6-7-------|
    A|----------------|-----------5-6-7-|
    E|-7--------------|-7---------------|
    
    
    TEMA:
    B
    Miraba el cielo justo a tiempo,
    miraba el cielo justo a tiempo
    
    RIFF
    
    TEMA:
    B
    Salvada del motor eterno,
    salvada del motor eterno justo a tiempo.
    
    
  • Letra y Acordes
    e|-------------|-----------------|
    B|-------------|-----------------|
    G|-----------8-|-----------------|
    D|---9-7-6-7---|---9-7-6-7-------|
    A|-------------|-----------5-6-7-|
    E|-7-----------|-7---------------|
    
    TEMA (E7):
    Miraba el cielo justo a tiempo,
    miraba el cielo justo a tiempo
    
    RIFF
    
    TEMA (E7):
    Salvada del motor eterno,
    salvada del motor eterno justo a tiempo.
    
    RIFF
    
    ESTRIBILLO
    
  • Tablatura
    e|---------------|-----------------|
    B|---------------|-----------------|
    G|-------------8-|-----------------|
    D|-----7-6-7-9---|-----7-6-7-------|
    A|---------------|-----------5-6-7-|
    E|---7-----------|---7-------------|
    
    
    TEMA (E7):
    Miraba el cielo justo a tiempo,
    miraba el cielo justo a tiempo
    
    RIFF
    
    TEMA (E7):
    Salvada del motor eterno,
    salvada del motor eterno justo a tiempo.
    
    RIFF
    
    
  • Tab p/Bajo
    Intro/Riff
    
    G|-------------8-|-----------------|
    D|---9-7-6-7-9---|---9-7-6-7-------| X2
    A|---------------|-----------5-6-7-|
    E|-7-------------|-7---------------|
    
    Estribillo (1)
    G|--------------|          --------------------|
    D|--------------|x2        --------------------| X1
    A|--------------|          --------------9-434-|
    E|0-50--70--97--|          -0-50--70--97-------|
    
    
    Estribillo (2)
    G|---------------------------------|
    D|-------5-3-----------------------|x2
    A|---1-5-----5-----1-5----1-5-4-2--|
    E|-2-----------3-2-----2-----------|
    
    -----------------------------------------------------------------------------
    -Intro/RIFF x4
    
    -Estribillo (1):
     Miraba el cielo justo a tiempo,
     miraba el cielo justo a tiempo
    
    -RIFF x2
    
    -Estribillo (1):
     Salvada del motor eterno,
     salvada del motor eterno justo a tiempo.
    
    -RIFF x2
    
    -Estribillo (2):
     Aquella solitaria vaca cubana.
     Aquella solitaria vaca cubana.
    
    -RIFF x2
    
    -Estribillo (1):
     Rumiaba el silbido del viento,
     rumiaba el silbido del vient
  • Tab p/Bajo
    h = hammer on.
    
    INTRO (4 veces)
    G|----------------8|
    D|------7-7-6-7-6--|
    A|-----------------|
    E|-12/7------------|
    
    G|-----------------|
    D|----7-7-6-7------|
    A|------------5h6h7|
    E|-7---------------|
    
    
    VERSO (Miraba al cielo justo a tiempo...)
    G|------------------|
    D|------------------|
    A|------------------|
    E|-0--3-0--5-0--7-5-| [- 2 veces
    
    G|--------------------------|
    D|--------------------------|
    A|------------------7--4-5-4|
    E|-0--3-0--5-0--7-5---------|
    
    
    PUENTE (4 veces)
    G|-------------8|
    D|---7-7-6-7-6--|
    A|--------------|
    E|-7------------|
    
    G|-----------------|
    D|----7-7-6-7------|
    A|------------5h6h7|
    E|-7---------------|
    
    
    VERSO (...salvada del motor eterno...)
    G|------------------|
    D|------------------|
    A|------------------|
    E|-0--3-0--5-0--7-5-| [- 2 veces
    
    G|--------------------------|
    D|--------------------------|
    A|------------------7--4-5-4|
    E|-0--3-0--5-0--7-5---------|
    
    
    PUENTE (4 veces)
    G|-------------8|
    D|---7-7-6-7-6--|
    A|--------------|
    E|-7------------|
    
    G|----
  • +
    ¡Colabora con nosotros!
    Envíanos tu versión de esta canción

Letra de Aquella solitaria vaca cubana
TEMA:
Miraba el cielo justo a tiempo,
miraba el cielo justo a tiempo
RIFF
TEMA:
Salvada del motor eterno,
salvada del motor eterno justo a tiempo.
RIFF
ESTRIBILLO:
Aquella solitaria vaca cubana.
Aquella solitaria vaca cubana.
RIFF
TEMA:
Rumiaba el silbido del viento,
rumiaba el silbido del viento
RIFF
TEMA:
La civilización la amaba,
la civilización la amaba justo a tiempo
RIFF
ESTRIBILLO:
Aquella solitaria vaca cubana.
Aquella solitaria vaca cubana.
Arreglos (van entre lo que seria TEMA y RIFF):
Les conviene hacer los hacer los acordes con cejillas o en 5º



© LaCuerda.net · aviso legal · privacidad · contacto