Acordes de Guitarra » P »los Panchos » Sin Tí (Tab)

Sin Tí
los Panchos

Letras, Acordes y Tabs para Guitarra, Bajo y Ukulele

  •     A
    Sin ti
           E         C#m  A
    no podre vivir jamas
                           
    y pensar que nunca mas
         Eø         E7
    estaras junto a mi.
        Bm
    Sin ti, 
                         E7
    que me puede ya importar
                               
    si lo que me hace llorar
                     ABm E7
    esta lejos de aqu¡.
         A
    Sin ti,
               E             C#m  A     
    no hay clemencia en mi dolor
    
  •  Aaug
    e|--5--
    B|--6--
    G|--6--
    D|--7--
    A|--X--
    E|--X--
    
    INTRO: -requinto- Em A7 D F#m G A Aaug
    
        D
    Sin ti
    
    No podré vivir jamás
    
    Y pensar que nunca mas
                    A
    Estarás junto a mi
        Em
    Sin ti
    
  •     D        A           F#m D                             Cdim
    Sin tí, no podré vivir jamás,  y pensar que nunca más, estarás
    
            A7
    junto a mí,
    
        Em                       A7
    sin tí, qué me puede ya importar, si lo que me hace llorar,
    
                   D   Cdim Em A7
    está lejos de aquí;
    
        D             A              F#m D
    sin tí, no hay clemencia en mi dolor,  la esperanza de mi amor,
    
          D7         G  B7 Em
    te la llevas por fin,
    
        G  Gm            D          Cdim    Em A7                D
    sin tí,  es inútil vivir, como inútil será,  el quererte olvidar.
    
  • Em-A-D-F#m-Em-A-Aaug
    
    D
    SIN TI
                    F#m
    NO PODRÉ VIVIR JAMÁS
                         D
    Y PENSAR QUE NUNCA MAS
    Em-Aaug                 A
    ESTARÁS JUNTO A MI
    
    Em
    SIN TI
      A                    Em
    QUE ME PUEDE YA IMPORTAR
     A                    Em
    SI LO QUE ME HACE LLORAR
    A               D          Em-A
    ESTA LEJOS DE AQUÍ
    
    
  •   \                                        MIm
       1|---------------10--12--10--12--10------
     ) 2|--7--8--9--10----------------------12--
       3|---------------------------------------
       4|---------------------------------------
     ) 5|---------------------------------------
       6|---------------------------------------
    __/
    
    
                         LA 7
    __      RIFF 2
      \     
       1|---------------------------------------
     ) 2|--0--7--0------------------------------
       3|-----------8--7--6---------------------
       4|---------------------------------------
     ) 5|---------------------------------------
       6|---------------------------------------
    __/
    
  • __
    
       1|---------------10--12--10--12--10-------------------
     ) 2|--7--7--8--10----------------------12--12---12-----------
       3|--------------------------------------------12-------
       4|----------------------------------------------------
     ) 5|-------------------------------------------------
       6|---------------------------------------------------
    -__/
    
    
    
    __
    
       1|---------------------------------------
     ) 2|---------------------------------------
       3|-9--11--9----------------------------------
       4|------------12--11-------------------------
     ) 5|---------------------------------------
       6|---------------------------------------
    __/
    
    
    
    __
    
       1|--10--9--10--11--12-----10--12--10--9---------
     ) 2|---------------------------------------
       3|---------------------------------------
       4|---------------------------------------
     ) 5|---------------------------------------
       6|---------------------------------------
    __/
    
    
    
    
       1|--10--12--10--12--10--12--10--12--10--12--10-----------
  •                   Dm          E7
    G--------------------------3-2-1--------------------
    B-2-3-4-5---------7-3-0-2-0-------------------------
    e--------5-7-5-7-5---------------4-5-4-5-6-7-5-5-4-7
    
                         C#m                  D                   E7  E+5
    G:------------------6--------------------6--------------------4---3
    B:-----------------5--------------------5--------------------3--5-3
    e:5-7-5-7-5-7-5-7-5--5-4-5-4-5-4-5-4-5-4--4-2-4-2-4-2-4-2-4-2--2--2
         A
    sin ti
    B:2-3-2-3-4-5
                     C#m
    no podre vivir jamas
    G:-6
    B:--5---------5-6-7
    e:---4-7-4-5-4
                        A
    y pensar que nunca mas
    G:2-4-5-6
    
  •                                       MIm
       1|---------------10--12--10--12--10------
     ) 2|--7--8--9--10----------------------12--
       3|---------------------------------------
       4|---------------------------------------
                         LA 7
       1|---------------------------------------
     ) 2|--5--7--5------------------------------
       3|-----------8--7--6---------------------
       4|---------------------------------------
    
       1|--9--10--9--10--11--12----10--12--10--9--
     ) 2|-----------------------------------------
       3|-----------------------------------------
       4|-----------------------------------------
            RE
       1|--10-12-10-12-10-12-10-12-10-12-10---------10-----
     ) 2|-----------------------------------10---10----12--
       3|--------------------------------------11----------
       4|--------------------------------------------------
    
  • +
    ¡Colabora con nosotros!
    Envíanos tu versión de esta canción
  • Tutorial
    Como tocar SIN TI en Guitarra BOLERO
    4:26

Letra de Sin Tí
Sin ti
no podre vivir jamas

y pensar que nunca mas
estaras junto a mi.
Sin ti,
que me puede ya importar

si lo que me hace llorar
esta lejos de aqu¡.
Sin ti,
no hay clemencia en mi dolor

la esperanza de mi amor
te la llevas por fin.
Sin ti,
es inutil vivir
como inutil sera
el quererte olvidar




[Sin Tí chords][Sin Tí cifra]
© LaCuerda.net · aviso legal · privacidad · es · en · pt · contacto