Acordes de Guitarra » P »los Panchos » Contigo (Tab)

Contigo
los Panchos

Letras, Acordes y Tabs para Guitarra, Bajo y Ukulele

  •     C           Em        Am                 Dm G7
    Tus besos se llegaron a recrear,  aquí en mi boca,
    
       Dm          G7           Dm  G7        C
    llenando de ilusión y de pasión   mi vida loca,
    
                                    Cdim           Dm  G7
    las hora mas felices de mi amor,     fueron contigo,
    
        Dm            G7             Dm   G7          C    Em Ebm Dm G7
    por eso es que mi alma siempre extraña  el dulce alivio;
    
       C          Em            Am               Dm   G7
    te puedo yo jurar ante un altar,  mi amor sincero,
    
      Dm            G7           Dm  G7           C
    a todo el mundo le puedes contar    que sí te quiero;
    
                                 C7                F    Fm
    tus labios me enseñaron a sentir, lo que es ternura,
    
  •  C               Em     Am
    Tus besos se llegaron a recrear 
                Dm      
    aqui en mi boca,
        G7          Dm        G7
    llenando de ilusion y de pasion 
          C
    mi vida loca.
    
    
         C
    Las horas mas felices de mi amor
            G7
    fueron contigo,
        REm           Edim
    por eso es que mi alma siempre 
    G7          C         Am Dm G7
    estraña el dulce alivio.
    
         C       Em            Am
    
  •     C           Em        Am                 Dm
    Tus besos se llegaron a recrear,  aquí en mi boca
    _  e||-----------10-12-13-—12-13-12—-10-12-10-
    _) B||---------10-----------------------------
       G||--7-9-10-------------------------------- Figura 1
        G7          Dm          G7     Dm      C
    llenando de ilusión y de pasión   mi vida loca,
    _  e||------7-10-8-7---------8-7---------
    _) B||----8----------------8-----10------
       G||--9----------------9---------------
    _  D||----------------10-----------------    Figura 2
    las hora mas felices de mi amor,
    _  e||----(5)------------------
    _) B||----(5)------------------
       G||----(5)------------------
               G7
    fueron contigo,
    _  e||----------------5---10-9-12-10-9-12-10---
    _) B||----5-------5-6--------------------------
       G||--7---7-6-7------------------------------
    
  • hola, espero le entiendan en la parte de los corchetes,
    siempre tengo el mismo problema porque no se como se llama ese sonidito
    y para describirlo es tedioso, para los que no le entiendan echenme un mail
    y les explico.
    
    si encuentran errores tirenme un mail
          
          <<<si alguien tiene acordes de 'los tres ases' e-mail me>>>
    
    __
      \     
    _  e||--13--13--13--16--13---------------
    _) B||----------------------14--13-------
       G||------------------------------15---
    _  D||-----------------------------------
    _) A||-----------------------------------
       E||-----------------------------------
    __/
    
    
    __
      \     
    _  e||----------------------13--14--------------
    _) B||----------13--14--16----------------------
       G||--14--15----------------------------------
    _  D||------------------------------------------
    _) A||------------------------------------------
       E||------------------------------------------
    __/
    
    
    __
      \     
    _  e||--16--14--13-----
  • Este es el requinto de la cancion contigo de los
    panchos.algunos trios lo tocan en la + 
    habria que recorerlo dos trastes hacia arriba 
    
    En sol mayor  Requinto (5 medios tonos arriba)
    __      
      \                                       
       1|--7-7-7-10-7-------------------7-8-----
     ) 2|-------------8-7--------7-8-10---------
       3|-----------------9--8-9----------------
       4|---------------------------------------
     ) 5|---------------------------------------
       6|---------------------------------------
    __/
    
    
    _      
      \                                       
       1|-10-8-7-----------------10-12-10-12-10-
     ) 2|---------10-8-7------------------------
       3|-----------------9-8-7-----------------
       4|---------------------------------------
     ) 5|---------------------------------------
       6|---------------------------------------
    __/
    
    
          
      \                                       
       1|--8-7------7-----------------7-8-------
     ) 2|-------10----10--8-7-8-9-10----
  • Que tal amigos, aqui esta el REQUINTO de la cancion
    'contigo'. Si por casualidad no le entienden mandenme
    un mail y yo les explicare.
    
    (escuchen la cancion para ponerle el tiempo.)
                INTRO
    
    1--13--13--13--16--13--------------
    2----------------------14--13------
    3------------------------------15--
    4----------------------------------
    5----------------------------------
    6----------------------------------
    
    1----------------13--14------------
    2--13x3--14--15--------------------
    3----------------------------------
    4----------------------------------
    5----------------------------------
    6----------------------------------
    
    1--14X3--13------------------------
    2------------15--14--13--12--------
    3----------------------------------
    4----------------------------------
    5----------------------------------
    6----------------------------------
    
    1--15--17--15--17--15--17--15--17--15----------------14--15--15X3--16--17--
    2--------------------------------------14X3-
  • +
    ¡Colabora con nosotros!
    Envíanos tu versión de esta canción
  • Tutorial
    HD
    Requinto de Contigo - Los Panchos
    Cómo Tocar #31
    7:09

Letra de Contigo
Tus besos se llegaron a recrear, aquí en mi boca,
llenando de ilusión y de pasión mi vida loca,
las hora mas felices de mi amor, fueron contigo,
por eso es que mi alma siempre extraña el dulce alivio;
te puedo yo jurar ante un altar, mi amor sincero,
a todo el mundo le puedes contar que sí te quiero;
tus labios me enseñaron a sentir, lo que es ternura,
y no me cansaré de bendecir tanta dulzura.




[Contigo chords][Contigo cifra]
© LaCuerda.net · aviso legal · privacidad · es · en · pt · contacto