Acordes de Guitarra » P »los Panchos » Piel Canela (Tab)

Piel Canela
los Panchos

Letras, Acordes y Tabs para Guitarra, Bajo y Ukulele

  • INTRO: MIm LA7 MIm LA7 RE MIm LA7 MIm RE                 ORIGINAL MIm
    
           MIm          LA7        RE      SIm
    Que se quede el infinito sin estrellas
          MIm             LA7           RE
    y que pierda el ancho mar su inmensidad,
            FA#7                     SIm
    pero el negro de tus ojos que no muera
           MIm                       LA7
    piel canela de tu piel se quede igual.
    
          MIm           LA7       RE    SIm
    Si perdiera el arco iris su belleza
          MIm          LA7         RE
    y las flores su perfume y su color
         FA#7                   SIm
    no sería tan inmensa mi tristeza
          MIm                        LA7
    como aquella de quedarme sin tu amor.
    
    
  •        Em          A7            D     Bm7
    QUE SE QUEDE EL INFINITO SIN ESTRELLAS
            Em             A7            D
    O QUE PIERDA EL ANCHO MAR SU INMENSIDAD
            F#                       Bm7
    PERO EL NEGRO DE TUS OJOS QUE NO MUERA
          E7                          A7
    PIEL CANELA DE TU PIEL SE QUEDE IGUAL.
    
           Em            A7        D   Bm7
    SI PERDIERA EL ARCOIRIS SU BELLEZA
           Em           A7         D
    Y LAS FLORES SU PERFUME Y SU COLOR
         F#                  Bm7
    NO SERIA TAN INMENSA MI TRISTEZA
           E7                        A7 
    COMO AQUELLA DE QUEDARME SIN TU AMOR.
    
                Em        A7
    ME IMPORTAS TU Y TU Y TU
    
  •            Em     A7             Em     A7
    |---------------------|-----------------------|
    |---------------------|-----------------------|
    |--------------12-----|--------------12-------|
    |--7-7-7-8-9------11--|--7-7-7-8-9------11----|
    |---------------------|-----------------------|
    |---------------------|-----------------------|
    
               D     Bm              D      Bm
    |---------------------|-----------------------|
    |---------------------|-----------------------|
    |--------------11-----|--------------11-------|
    |--7-7-7-8-9------9---|--7-7-7-8-9------9-----|
    |---------------------|-----------------------|
    |---------------------|-----------------------|
    
               Em     A7              Em          A7            D
    |---------------------|----------------------------------------|
    |---------------------|-----------10-8-------------------------|
    |--------------12-----|----------------11-9----------------6-7-|
    
  • La canción está en A.
    
      \
       1|----------------10----------------10--
     ) 2|------------------9-----------------9-
       3|---9-9-9-10-11-------9-9-9-10-11------
       4|--------------------------------------
     ) 5|--------------------------------------
       6|--------------------------------------
      /
    
    
    
      \
       1|----------------9-----------------9---
     ) 2|------------------9-----------------9-
       3|---9-9-9-10-11-------9-9-9-10-11------
       4|--------------------------------------
     ) 5|--------------------------------------
       6|--------------------------------------
      /
    
    
    
    
      \
       1|----------------10----------12-10-9-----------------
     ) 2|------------------4-----------------12------9-10-10-
       3|---9-9-9-10-11--------9-9-9------------9-11---------
       4|----------------------------------------------------
     ) 5|----------------------------------------------------
       6|----------------------------------------------------
      /
    
    
    Suena muy bien si se toca como 
  • +
    ¡Colabora con nosotros!
    Envíanos tu versión de esta canción
  • Tutorial
    HD
    Explicacion del Punteo, picado Primera Guitarra PIEL CANELA bolero
    7:04
  • Tutorial
    HD
    Explicacion del Ritmo y acordes de PIEL CANELA
    4:37
  • Tutorial
    Piel canela - bolero - Bobby Capo - Guitarra Como tocar
    4:08

Letra de Piel Canela
QUE SE QUEDE EL INFINITO SIN ESTRELLAS
O QUE PIERDA EL ANCHO MAR SU INMENSIDAD
PERO EL NEGRO DE TUS OJOS QUE NO MUERA
PIEL CANELA DE TU PIEL SE QUEDE IGUAL.
SI PERDIERA EL ARCOIRIS SU BELLEZA
Y LAS FLORES SU PERFUME Y SU COLOR
NO SERIA TAN INMENSA MI TRISTEZA
COMO AQUELLA DE QUEDARME SIN TU AMOR.
ME IMPORTAS TU Y TU Y TU
Y SOLAMENTE TU Y TU Y TU
ME IMPORTAS TU Y TU Y TU
Y NADIE MAS QUE TU.
OJOS NEGROS PIEL CANELA
QUE ME LLEGAN A DESESPERAR
ME IMPORTAS TU Y TU Y TU
Y SOLAMENTE TU.
ME IMPORTAS TU Y TU Y TU
Y NADIE MAS QUE TU.
VA POR MI CHAVA (BERENICE C. MOTA) QUE YA VA A DAR A LUZ
A MI MORRITO Y POR EL C.E.A.D.U.P.




[Piel Canela chords][Piel Canela cifra]
© LaCuerda.net · aviso legal · privacidad · es · en · pt · contacto