Acordes de Guitarra » P »los Panchos » Malagueña (Tab)

Malagueña
los Panchos

Letras, Acordes y Tabs para Guitarra, Bajo y Ukulele

  •             Bb          Ebm          C#        B        Bb
    E|----------6-----------6------------9---------7--------6---|
    B|----------6-----------7------------9---------7--------6---|
    G|----------7-----------8-----------10--10-----8--8-----7---|
    D|----------8------6----8----6-8----11-----11--9----9---8---|
    A|-6-8-9-6--8--8-9---8--6--9-----9--11---------9--------8---|
    E|----------6-----------6------------9---------7--------6---|
    
                    Ebm
    E|--------------6-------|
    B|--------------7-------|
    G|--------------8-------|
    D|-8-9-8-6------8-------|
    A|---------9-8--6-------|
    E|--------------6-------|
    
    Ebm
    Que bonitos ojos tienes
                          C#
    debajo de esas dos cejas
    
  • Am          E7   Am                        G7
    Que bonitos ojos tienes debajo de esas dos cejas
                       C      F                 E7           
    debajo de esas dos cejas que bonitos ojos tienes
    Am        E7     Am                       G7
    ellos me quieren mirar pero si tu no los dejas
                       C    F                  E7 
    pero si tu no los dejas ni si quiera parpadear
                    Am                           G7
    (malague..ña salerosa besar tu labios quisie..ra
                         C    F             E7
    besar tus labios quisiera malagueña salerosa
                        Am                         G7
    y decir..te niña hermosa que eres linda y hechizera
                           C    F                     E7
    que eres linda y hechizera  como el candor de una rosa)
    Am      E7          Am                         G7          
    con los ojos me anunciabas que me amabas tiernamente
                     C      F                   E7
    que amabas tiernamente con los ojos me anunciabas
    
  • MI
    K BONITOS OJOS TIENES
           MI7          LAm
    DEBAJO DE ESAS DOS CEJAS
              RE       SOL 
    DEBAJO DE ESAS DOS CEJAS
     DO             SI7
    K BONITOS OJOS TIENE
    MI
    ELLOS ME QUIEREN MIRAR
         MI7           LAm
    PERO SI TU NO LOS DEJAS
            RE       SOL 
    PERO SI TU NO LO DEJAS
     DO          SI7
    NI SIQUIERA PARPADEAR
    -----estribillo-------
               MI
    MALAGUEÑA SALEROSA
     RE               SOL 
    
  •           E7\       E7\     E7\  golpe-ritmo Am
    1------------------------------------------
    2----------0---------0-------0-------------
    3----1---1-----1---1----1---1---2-1-2------
    4---2---2-----2---2----2---2---------------
                                     G7
    1----------0--------0----------0------------
    2-----1--1----1---1-----1----1----3-2-3-----
    3----2--2----2--2-----2----2----------------
    4-------------------------------------------
                                             C
    1------------------------------------------------ 
    2-----0----0--3---0---0--3---0----0--3----1--0--1
    3---0----0------0---0------0----0---------------- 
    4-------------------------------------------------
             F                                         E7
    1--------0-------------------------0--1-0------------
    2---1--3---3--1--0--------0--0-------------3--1--0---
    3-------------------2--1-------1---------------------2
    4---------------------------------2-------------------
    
  • Intro   Dm  A7  Dm
    
    (capo 5º traste)
          A7          Dm                         C7
    e------------------------------------------------------
    B-----0-----0-----0--------------1-----1-0-------------
    G--1-1---1-1---1-1---2h1-2---2222--2222----2-2-0--0----
    D-2-2---2-2---2-2--------------------------------4-----
    
                F          Bb                           A7            Dm
    e-----------------------1h0-----------------------------------------
    B-11-33-0-1-3--0-1---1-3----3-1-3h1-0-1h0---------------------------
    G------2----------------------------------2-1-1h21------------------
    D--------------------------------------------------2--2-3-2-0-------
    A-------------------------------------------------------------3-2-0-
    
    Dm                                          Gm
    Que bonitos ojos tienes, debajo de esas dos cejas
     C7                  F       Bb               A7
    debajo de esas dos cejas, que bonitos ojos tienes.
    
  • +
    ¡Colabora con nosotros!
    Envíanos tu versión de esta canción

Letra de Malagueña
Que bonitos ojos tienes
debajo de esas dos cejas
debajo de esas dos cejas
que bonitos ojos tienes.
Ellos me quieren mirar
pero si tu no los dejas
pero si tu no los dejas
ni siquiera parpadear
(PARTE I)
Malagueña salerosa
besar tus labios quisiera
besar tus labios quisiera
malagueña salerosa
y decirte niña hermosa
(PARTE II)
que eres li........nda y hechizera
que eres linda y hechicera
como el candor de una rosa
como el candor de una rosa
INTERMEDIO
Si por pobre me desprecias
yo te concedo razon
yo te concedo razon
si por pobre me desprecias.
Yo no te ofresco riqueza
te ofresco mi corazon
te ofresco mi corazon
a cambio de mi pobreza
Parte I
Parte II
(Riff 3)para terminar
(Riff1)
(Riff 2)
(Riff 3)
el ritmo es de huapango, esta canción es para tocarse con
dos guitarras, pero tocando el acompañamiento se escucha bien




[Malagueña chords][Malagueña cifra]
© LaCuerda.net · aviso legal · privacidad · es · en · pt · contacto