Acordes de Guitarra » P »los Panchos » Bésame Mucho (Tab)

Bésame Mucho
los Panchos

Letras, Acordes y Tabs para Guitarra, Bajo y Ukulele

  • INTRO: SOLm REm (x 3) SOL7 DO SOLm REm LA7 REm    ORIGINAL fa#m (CEJILLA 4)
    
    REm
    Bésame,
           SOLm
    bésame mucho,
                       LA
    como si fuera esta noche
       LA7    REm
    la última vez.
    
    Bésame,
           SOLm
    bésame mucho,
    REm             MI
    que tengo miedo perderte,
                LA7
    perderte después.
    
    Bésame,…
    
  • Dm             Gm 
    besame, besame mucho, 
            D7         Gm
    como si fuera esta noche
       A7     Dm 
    la última vez.
    D7             Gm
    Besame, besame mucho, 
       Dm              A#7
    que tengo miedo perderte
       A7        Dm
    perderte despues.
    Gm                  Dm
    Quiero tenerte muy cerca,
                   A7
    mirarme en tus ojos, 
                    Dm
    y estar junto a tí.
    Gm                   Dm
    Piensa que talvez mañana,
    
  •        Am           Em          Am             Em      Am             Em
    e|-----12-15-14-12-14-15-12------12-15-14-12-14-15------12-15-14-12-14-15-|
    b|---13---13-13-12-13-13-12----13---13-13-12-13-13----13---13-13-12-13-13-|
    g|-14------------------------14---------------------14--------------------|
    
    A        C  D  Db C   Am         Em        B7       Em
    e|---------16-17-17-17-15-14-13-12---8-12-10--8-7-10--8-7-5--8-7-5-3-|
    b|-17-19-20---19-19-19-17-15-14-13--10-13-12-10-8-12-10-8-7-10-8-7-5-|
    g|-------------------------------------------------------------------|
    
    e|---7-8----7-8----|
    b|-----------------|
    g|--------9------9-|
    d|-------9------9--|
    
    Em               Edin7    Am
      bésame,            bésame mucho,
    e|--------------10-9----------------------5-7-5-8-|
    b|-----------12--------------------------5------5-|
    g|---------12-------------------------5-7---------|
    
  • +
    ¡Colabora con nosotros!
    Envíanos tu versión de esta canción
  • Tutorial
    HD
    como tocar BESAME MUCHO en Guitarra Bolero
    8:36

Letra de Bésame Mucho
Bésame,
bésame mucho,
como si fuera esta noche
la última vez.
Bésame,
bésame mucho,
que tengo miedo perderte,
perderte después.
Bésame,…
…la última vez.
Bésame,…
…perderte después.
Quiero tenerte en mis brazos,
mirarme en tus ojos,
verte junto a mí.
Piensa que tal vez mañana
ya estaré muy lejos,
muy lejos de aquí.
Bésame,
bésame mucho,
como si fuera esta noche
la última vez.
Bésame,
bésame mucho,
que tengo miedo perderte,
perderte después.
Quiero tenerte en mis brazos,…
Piensa que tal vez mañana…
Bésame,…
…la última vez.
Bésame,…
…perderte después. rem




[Bésame Mucho chords][Bésame Mucho cifra]
© LaCuerda.net · aviso legal · privacidad · es · en · pt · contacto