Tablatura de los Panchos: Sin Tí
Pepe Guízar
Epoca de Oro
__

   1|---------------10--12--10--12--10-------------------
 ) 2|--7--7--8--10----------------------12--12---12-----------
   3|--------------------------------------------12-------
   4|----------------------------------------------------
 ) 5|-------------------------------------------------
   6|---------------------------------------------------
-__/



__

   1|---------------------------------------
 ) 2|---------------------------------------
   3|-9--11--9----------------------------------
   4|------------12--11-------------------------
 ) 5|---------------------------------------
   6|---------------------------------------
__/



__

   1|--10--9--10--11--12-----10--12--10--9---------
 ) 2|---------------------------------------
   3|---------------------------------------
   4|---------------------------------------
 ) 5|---------------------------------------
   6|---------------------------------------
__/




   1|--10--12--10--12--10--12--10--12--10--12--10-------------10-------
 ) 2|-----------------------------------------------10----10------12--
   3|---------------------------------------------------11---------
   4|------------------------------------------------------------
 ) 5|------------------------------------------------------------
   6|------------------------------------------------------------
__/




   1|--9--10--9--10--9--10--9--10--9--10--9-----------9-------
 ) 2|----------------------------------------10----10----10-----------
   3|--------------------------------------------11----------------
   4|------------------------------------------------------------
 ) 5|------------------------------------------------------------
   6|------------------------------------------------------------
__/




   1|--7--9--7--9--7--9--7--9--7--9--7-----------7-----5-----
 ) 2|-----------------------------------8-----8-----8--------
   3|--------------------------------------9------------------
   4|---------------------------------------------------------
 ) 5|---------------------------------------------------------
   6|---------------------------------------------------------
__/


   1|--9--------------------------------------
 ) 2|--10-------------------------------------
   3|--10-------------------------------------
   4|--11-------------------------------------
 ) 5|-----------------------------------------
   6|-----------------------------------------
__/

aki sugerencias o tabs al mail betiyolokillo@hotmail.com
Este fichero es trabajo propio de su transcriptor y representa su interpretación personal de la canción. El material contenido en esta página es
para exclusivo uso privado, por lo que se prohibe su reproducción o retransmisión, así como su uso para fines comerciales.
© LaCuerda.net · aviso legal · privacidad · contacto