Acordes de Guitarra » M »Maná » El verdadero amor perdona (Tab)

El verdadero amor perdona
Maná

Letras, Acordes y Tabs para Guitarra, Bajo y Ukulele

  • Intro : D#m - A#m - B -  F#
    
    D#m               A#m       B                   F#
    Tienes todos los espacios    inundados de tu ausencia
    D#m               A#m      B                       F#
    inundados de silencio      no hay palabras, no hay perdon
    D#m              A#m    B                   F#
    tu me tienes olvidado    no respondes al llamado
    D#m                      A#m                    B
    no eches tierra a la palabra me condenas a la nada
                         F#
    no me entierres sin perdon
    
    D#m                     C#                        B
    Mira corazón que es el engaño se revierte y hace daño
                       F#                    A#m
    se revienta en el aire como pompas de jabon.
    D#m                  A#m                  B
    Como pude haberte yo herido engañarte y ofendido
                         F#                          A#m
    
  • INTRO: RE#m LA#m SI FA#
    
    e|----------------------|----------------------|
    B|----------------------|----------------------|
    G|----------------------|----------------------|
    D|-8----8----8------8---|----------------------|
    A|----6----6----6-8---9-|-8----8----8------8---|
    E|----------------------|----6----6----6-7---9-|
    
    e|----------------------|----------------------|
    B|----------------------|----------------------|
    G|----------------------|-6----6----6------6---|
    D|-4----4----4------4---|----4----4----4-6---8-|
    A|----2----2----2-4---6-|----------------------|
    E|----------------------|----------------------|
    
                  Tienes todos los espacios
    e|----------------------|----------------------|
    B|----------------------|----------------------|
    G|----------------------|----------------------|
    
  • Intro: D#m A#m B F# (Originales) pero utilizando capodastro en el
    Primer traste se pueden usar: Dm Am Bb F
    
     Dm                Am
    tienes todos los espacios
     Bb           F  C
    inundados de tu ausencia
    Dm               Am
    inundados de silencio
    Bb                  F  C
    no hay palabras no hay perdón.
    
         Dm                Am
    2.) Tú me tienes olvidado
     Bb                 F
    no respondes al llamado
     Dm                    Am
    no eches tierra a la palabra
                      Bb
    me condenas a la nada
    
  • Intro D#m A#m B F#
    
    e|---------------------|----------------------|
    b|---------------------|----------------------|
    g|---------------------|----------------------|
    D|--8---8---8------8---|----------------------|
    A|----6---6---6-8----9-|--8---8---8----8------|
    E|---------------------|----6---6---6-7----9--|
    
    e|---------------------|----------------------|
    b|---------------------|----------------------|
    g|---------------------|--6---6---6------6----|
    D|--4---4---4------4---|----4---4---4--6---8--|
    A|----2---2---2-4----6-|----------------------|
    E|---------------------|----------------------|
    
    Tienes todos los espacios
    
    e|---------------------|-------------------------|
    b|---------------------|-------------------------|
    
  • ---------------------------------------------------------
    esta es una modificacion de mi anterior publicacion..estaban
    mal los finales de cada punteo en fin..aki estan lo k suenan
    mas parecidos saludos!"! ^_^
    
    Intro:
    
    e.-------------------------------------------------------
    B.-------------------------------------------------------
    G.-------------------------------------------------------
    D.-8----------------------------------------------9--8---
    A.----6-----6-8-9-8--------------9--------9---11-------9--
    E.------------------6-----6-7-9------7-------------------
    
    
    e.-------------------------------------------------------
    B.-------------------------------------------------------
    G.-------------------------------------------------------
    D.-------------------------------------------------------
    A.--8----6h8h6----4--6--8--------------------------------
    
  • Intro:D#m,A#m,B,F#
    
    e|---------------------|----------------------|
    b|---------------------|----------------------|
    g|--3------------------|----------------------|
    D|----1--1-3-4-3-------|--------4-------------|
    A|----------------1----|--1-2-4---2-----------|
    E|---------------------|----------------------|
    
    e|---------------------|----------------------|
    b|---------------------|----------------------|
    g|------4-3------------|---3p1---1-3----------|
    D|--4-6-----4----------|-------3--------------|
    A|---------------------|----------------------|
    E|---------------------|----------------------|
    
    
    Tienes todos los espacios
    e|---------------------|
    b|---------------------|
    
  • +
    ¡Colabora con nosotros!
    Envíanos tu versión de esta canción
  • Tutorial
    El verdadero amor perdona - Mana - Tutorial & Cover
    1:45
  • Tutorial
    Tutorial 1)
    Como tocar el verdadero amor perdona - Elcarpcok
    6:07

Letra de El verdadero amor perdona
Tienes todos los espacios inundados de tu ausencia
inundados de silencio no hay palabras, no hay perdon
tu me tienes olvidado no respondes al llamado
no eches tierra a la palabra me condenas a la nada
no me entierres sin perdon
Mira corazón que es el engaño se revierte y hace daño
se revienta en el aire como pompas de jabon.
Como pude haberte yo herido engañarte y ofendido
alma gemela no te olvido aunque me arranque el corazón
Haaay!!! el rencor que nos envenena nos hace daño
aunque no regreses corazón has de perdonarme
El verdadero amor perdona no abandona, no se quiebra
no aprisiona, no revienta como pompas de jabon
INTROO X 2
Un error es algo humano no justifico la traicion
los amantes verdaderos se comprenden, se aman y se olvidan del rencor
y me revuelco en la cama aferrandome a la nada implorando tu perdon
Mira corazón cuanto te extraño pasan dias, pasan años
y mi vida se revienta como pompas de jabon
Como pude haberte yo herido engañarte y ofendido
alma gemela no te olvido aunque me arranque el corazón
El verdadero amor perdona(2)
Si el amor es verdadero no se quiebra, no abandona(2)




[El verdadero amor perdona chords][El verdadero amor perdona cifra]
© LaCuerda.net · aviso legal · privacidad · es · en · pt · contacto