Acordes de Guitarra » M »Maná » Rayando el Sol (Tab)

Rayando el Sol
Maná

Letras, Acordes y Tabs para Guitarra, Bajo y Ukulele

  •     G -  D -  Em -  C  
        G -  Bm -  C -  D -  Em 
    
    
                G       C 
    Rayando el sol
                 D      C 
    rayando por ti
            G 
    esta pena me duele 
         C            D     C 
    me quema sin tu amor
    
    
           Bm 
    No me has llamado 
     C             D 
    estoy desesperado
         Bm 
    son muchas lunas 
    
  •      G          D         Em          C
    1. --3----------2----------0----------0----------|
    2. --0-0-3------3-0-3------0-0-3------1-0-3------|
    3. --0-----4-5--2-----4-5--0-----4-5--0-----4-5--|
    4. --0----------0----------2----------2----------|
    5. --2----------0----------2----------3----------|
    6. --3---------------------0----------0----------|
    
         G         Bm        C        D         Em
    1. --3----------2--------0--------2----------0---3--|
    2. --0-0-3------3-0-3----1-0-3----3-0-3------0-0----|
    3. --0-----4-5--4-----4--0-----4--2-----4-5--0------|
    4. --0----------4--------2--------0----------2------|
    5. --2----------2--------3--------0----------2------|
    6. --3-------------------0-------------------0------|
    
    
    Verso:
    
    
    
  • Hola pues esta es mi segunda tablatura
    espero k  les guste
    
    INTRO
    
    E---3------------2------------0------------0---------------
    B---0-----0--1---3-----0--1---0-----0--1---1-----0--1------
    G---0---0--------2---0--------0---0--------0---0-----------
    D---0------------0------------2------------2---------------
    A---2------------0------------2------------3---------------
    E---3------------0------------0------------0---------------
    
    E---3-----------2-----------0-----------2-----------0-----3
    B---0----0--1---3----0--1---1----0--1---3----0--1---0--0---
    G---0--0--------4--0--------0--0--------2--0--------0------
    D---0-----------4-----------2-----------0-----------2------
    A---2-----------2-----------3-----------0-----------2------
    E---3-----------------------0-----------0-----------0------
    
    Rayando el sol
    rayando por ti
    esta pena me duele
    y me quema sin tu amor
    
    no me has llamado estoy desesperado
    son muchas lunas las que te he llorado
    
    rayando el sol (oh eh ooh)
    deseperacion
    es mas facil llegar al
  • ------ INTRO -----
    
    acompañamiento con otra guitarra: G D Em C G Bm C D Em
    
           G            D           Em          C
    e|-------------|-------------|-------------|-------------|
    B|--2----------|--0----------|--2----------|--3----------|
    G|---0---------|---0---------|---2---------|---2---------|
    D|----0--------|----2--------|----0--------|----0--------|
    A|-----3-0-1---|-----3-0-1---|-----3-0-1---|-----3-0-1---|
    E|-------------|-------------|-------------|-------------|
    
          G            Bm           C          D         Em
    e|-------------|-------------|-------------|-------------|----------|
    B|-2-----------|-2-----------|-3-----------|-0-----------|-2--------|
    G|--0----------|--4----------|--2----------|--0----------|--2-------|
    D|---0---------|---4---------|---0---------|---2---------|---0------|
    A|----3-0-1----|----3-0-1----|----3-0-1----|----3-0-1----|----0-----|
    E|-------------|-------------|-------------|-------------|------3---|
    
    
  • Intro:
    
    G-|---------------------|----------------------|----------------------|----------------------|
    D-|--------0-0---4---0--|---------------2------|-----0---------4---0--|-----2-----2-0-4-0----|
    A-|-----2---------------|-----2---3-3-------3--|---------2-2----------|-3-------3------------|
    E-|-3-------------------|-0--------------------|-3--------------------|-------------------(0)|
    
    
    Verso 1
    
    Rayando el sol, rayando por ti, esta pena me duele me quema sin tu amor.
    
    G-|---------------------|----------------------|----------------------|----------------------|
    D-|--------------2------|-0---4---0-----2------|---------------2------|-0---4---0-----2------|
    A-|-----5--3-3-------3--|-----------3-------3--|-----5---3-3-------3--|-----------3-------3--|
    E-|-3-------------------|----------------------|-3--------------------|----------------------|
    
    
    no me has llamado estoy desesperado, son muchas lunas las que te he llorado
    
    G-|-----------------------------------|---------
  • Intro
    G|------|----------------------------------------|
    D|------|----------------------------------------|
    A|-5/1--|----------------------------------------|
    E|------|-33333333-1010101010-77777777-88888888--|
    
    G|----------------------------------------|
    D|----------------------------------------|
    A|----------------------------------------|
    E|-33333333-77777777-88888888-1010101010--|
    
    Rayando el sol rayando por ti...
    G|-----------------|
    D|----------0------|
    A|----23-------23--| x2
    E|-3---------------|
    
    G|-----------------------------------------------------------------------|
    D|-----------------------------------------------------------------------|
    A|-----------------------------------------------------------------------|
    E|77777777-88888888-1010101010101010-8877777777-88888888-1010101010101010|
    
    coro:
    RAYANDO EL SOL! OH EH OH....
    G|------|
    D|------|
    A|-5/1--|
    E|------|
    
    G|----------------------------------------|   |
    D|----------------------------------------|   |
    A|----------------
  • C = DISCO EL QUE USES COMO REMATE
    H = CONTRA (HI-HAT)
    S = TAROLA (SNARE)
    F = TOM DE PISO
    B = BOMBO
    / = GOLPE A LA TAROLA CON LA BAQUETA ACOSTADA
    LR= LEFT RIGHT (IZQUIERDA, DERECHA)
    
    
    *****INTRO*****
    C|------X-|
    H|X-X-X---|
    S|------O-|
    F|--------|
    B|-----2--|
    
    C|--------------------------------|----------------------------X---|
    H|x-x-x-x-x-x-x-x-x-x-x-x-x-x-x-x-|x-x-x-x-x-x-x-x-x-x-x-x-x-x---x-|
    S|----O-------O-------O-------O---|----O-------O-------O-------O---|
    F|--------------------------------|--------------------------------|
    B|O-------O-O-----O-------O-O-----|O-------O-O-----O-------O-O---O-|
    
    C|--------------------------------|--------------------------------|
    H|X-X-X-X-X-X-X-X-X-X-X-X-X-X-X-X-|X-X-X-X-X-X-X-X-X-X-X-X-X-X-X-X-|
    S|----O-------O-------O-------O---|----O-------O-------O-------O---|
    F|--------------------------------|--------------------------------|
    B|O-------O-O-----O-------O-O-----|O-------O-O-----O-------O-O-----|
    
    C|-------------------|
    H|XXX-X-X-XXX-X-XXXO-|
    S|
  • =================================================
    Version de Martin tummino
    (tummino@bariloche.com.ar)
    =================================================
    
    (arreglo del solo de armonica con armonica de DO mayor)
    
    6 larguisima - 5 5 5 5 5 5 5 5 5 - 
    5 6 (4) (4) 4 (3) (3) 3 6 6 - 5 6 6 - 5 6 6.
    
    FIN
    
    Cualquier sugerencia envienme un mail a marte@24horas.com
    Martin
    
    
    =================================================
    Version de Silverio R. Ayon
    (silverio50@hotmail.com)
    =================================================
    
    
      Hace mucho calor en el verano.  Las notas de rayando el sol me 
    salieron muy bien de mana.  En mi visita a la "isla de mujeres "en 
    kan-kun y los invito a tocar en el tono G /o/ Sol. 
    
                 [ ] [ ] [ ] [ ] [+] [+] [+] [ ] [ ] [ ] 
                  1   2   3   4   5   6   7   8   9  10 
    
                   D=RESPIRA   B=TIRA   O.K...... 
    
    Comiensa durante la cancion:7B..7B.... 6D6D6D.6D6D.6D6D. 
                                 6D7B5B5B.6D5B5B.6D
  • numero b = Bend (efecto  de wawawawa)
    (numero) = Aspirar
    numero = soplar
    
    En Harmonica RE/D:
    
    (5) 4b 4b 4b(muchas veces)
    (4)  (5) 4 4 (4) 4 4 (4) (5) (5) 5 (5) 5 (5) (5)
    
    Dani
  • +
    ¡Colabora con nosotros!
    Envíanos tu versión de esta canción
  • Tutorial
    HD
    Como tocar Rayando el sol de Maná
    4:58
  • Tutorial
    HD
    Rayando El Sol
    Como Tocar + Acordes Y Ritmo
    Mana
    6:51
  • Tutorial
    HD
    tutorial de rayando el sol de mana
    10:49

Letra de Rayando el Sol
Rayando el sol
rayando por ti
esta pena me duele
me quema sin tu amor
No me has llamado
estoy desesperado
son muchas lunas
las que te he llorado
Rayando el sol, oe oh
desesperacion
es mas facil llegar al sol
que a tu corazon
Me muero por ti , oe oh
viviendo sin ti
y no aguanto me duele tanto
estar asi, rayando el sol
A tu casa yo fui
y no te encontre
en el parque, en la plaza, en el cine
yo te busque
Te tengo atrapada
entre mi piel y mi alma
mas ya no puedo tanto
y quiero estar junto a ti
Rayando el Sol...




[Rayando el Sol chords][Rayando el Sol cifra]
© LaCuerda.net · aviso legal · privacidad · es · en · pt · contacto