Acordes de Guitarra » M »Maná » En el muelle de San Blás (Tab)

En el muelle de San Blás
Maná

  • Letra y Acordes
      Em              A
     ---------7---------------5-------
     -----8-------8-------5-------5---
     ---9---9---9---9---6---6---6---6-
     -9---------------7---------------
     ---------------------------------
     ---------------------------------
     
       D               G
     ----------5---------------3-----3-
     ------7-------7-------3-------3---
     ----7---7---7---7---4---4---4-----
     --7---------------5---------------
     ----------------------------------
     ----------------------------------
     
     
     Em                   A                    D                          G
       Ella Despidio a su amor el partio en un barco en el muelle de San Blas
     Em                   A                    D                          G
    
  • Letra y Acordes
    MIm7                  LA7
        Ella despidió a su amor
    RE/FA#                                         SOL
        El partió en un barco en el muelle de san Blas
    MIm7                 LA7
        él juró que volvería
    Re/Fa #                                     SOL
        y empapada en llanto ella juró que esperaría..
    MIm7                   LA7
        miles de lunas pasaron
    Re/Fa #                                  SOL
        y siempre ella estaba en el muelle  esperando..
    MIm7                     LA7
        Muchas tardes se anidaron
    Re/Fa #                               SOL
        se anidaron en su pelo y en sus labios
    
    MIm7,LA7,Re/Fa #,SOL
    
    Igual q antes
    
  • Tablatura
      Em                A                 D                 G
    E|---------7-------|---------5-------|---------5-------|---------3---2---|
    B|-----8-------8---|-----5-------5---|-----7-------7---|-----3---------3-|
    G|---9---9---9---9-|---6---6---6---5-|---7---7---7---7-|---4---4---4-----|
    D|-----------------|-----------------|-----------------|-----------------|
    A|-----------------|-----------------|-5---------------|-----------------|
    E|-0---------------|-5---------------|-----------------|-3---------------|
    
    Y el arpegio en el coro va asi:
    
      D                 A
    E|---------2-------|---------0-------|
    B|-----3-------3---|-----2-----------|
    G|---2---2---2---2-|---2---2---------|
    D|-0---------------|-----------------|
    A|-----------------|-0---------------|
    E|-----------------|-----------------|
    
    
    Intro:
    
  • Tablatura
          Em             A           D            G
    e|------------0-----------0----------2-----------3|
    B|-------0------------2----------3------------0---|
    G|-----0---0--------2---2------2---2--------0---0-|
    D|---------------------------0--------------------|
    A|---------------0--------------------------------|
    E|--0------------------------------------3--------|
    
    Riff1
          Em                 A              D            G
    e|---------7-------------5--------------5----------------3-----2---|
    b|-----8------8------5------5-------5-------5--------3-----3-----3-|
    g|---9---9--9---9--6---6--6---6---7---7---7---7----4---4-----4-----|
    d|-----------------------------------------------------------------|
    a|------------------------------5----------------------------------|
    E|--0-------------5------------------------------3-----------------|
    
    
    
    Em                 A                     D                         G
    
  • Tablatura
      Em                A                 D                 G
    E|---------7-------|---------5-------|---------5-------|----------3---2--|
    B|-----8-------8---|-----5-------5---|-----7-------7---|-----3----------3|
    G|---9---9---9---9-|---6---6---6---5-|---7---7---7---7-|---4---4----4----|
    D|-----------------|-----------------|-0---------------|-----------------|
    A|-----------------|-0---------------|-----------------|-----------------|
    E|-0---------------|-----------------|-----------------|-3---------------|
    
    En el acorde G seria un G con cejilla y las ultimas 2 notas cambia al am
    corde D.
    
    
    
    Y el arpegio en el coro va asi:
    
      D9                 A/C#              D9/B
    E|---------0-------|---------0-------|----------0------|
    B|-----3-------3---|-----2--------2--|------3-------3--|
    G|---2---2---2---2-|---2---2----2---2|----2---2---2---2|
    D|-0---------------|-----------------|-----------------|
    
  • Tab p/Bajo
    muy buena esta cancion, y muy facil ademas
    
    
    Intro:(00:05)
    
    G|---|-2-|-7-|-0-|
    D|-2-|---|---|---|
    A|---|---|---|---|
    E|---|---|---|---|
    
    I:
    G|-------0-2-|---2-00---0-|-------0-2-|----2-00---0-
    D|22--44-----|--------4---|00--44-----|---------4---
    A|-----------|00----------|-----------|-------------
    E|-----------|------------|-----------|33-----------
    
    G|---------0-|-----------|---------0--|---------
    D|22--22-4---|--------2--|00--00-4----|---------
    A|-----------|00--444----|------------|---------
    E|-----------|-----------|------------|33--3--2-
    
    G|---------0-|-----------|---------0--|---2-00---0-
    D|22-22-4----|---------2-|00--00-4----|--------4---
    A|-----------|00-0-004---|------------|------------
    E|-----------|-----------|------------|33----------
    
    G|---------0-|-----------|------------|------------
    D|22-22-4----|-----------|----00-2-4--|---00-2-4-0-
    A|-----------|00-0-00-4--|------------|------------
    E|-----------|-----------|22----------|33----------
    
    G|-------0-2-|-----------|------
  • Tab p/Bajo
    la base de esta cancion es esta
    
    G-------------------------------------------------------
    D----4-4-5-7------7-7-5-4-5-----4-4-5-7------4s5-5-4-2-4
    A--7--------------------------5-------------------------
    E--------------5--------------------------3--------------
    
    asi se va toda la cancion menos en los coros y el final
    
    el coro se va asi
    
    G------------------------------------------------
    D----4-5-7----4-5-7----4-5-7--------------4------
    A--5--------4--------2--------4----------4------- 
    E--------------------------------5-5--7----------
    esto tambien es parte del coro
    
    G-------------------------------------------------
    D----4-5-7----4-5-7----4-5-4--7----4-4-2-0-2-0-----------
    A--5--------4--------------------------------------
    E--------------------3-----------5--------------------
    
    despues se toca la base, solo en el ultimo coro hay 
    un cambio se empieza a tocar en tal momento esto!
    
    G--------------------------------------------------------
    D----------------------
  • +
    ¡Colabora con nosotros!
    Envíanos tu versión de esta canción
  • Tutorial
    HD
    Como Tocar - En El Muelle de San Blas - Mana
    7:33
  • Tutorial
    En el muelle de san blas - Mana,Tutorial & Cover
    9:53
  • Tutorial
    HD
    Como tocar En El Muelle de San Blas En Guitarra Acustica (HD)
    Tutorial
    6:04

Letra de En el muelle de San Blás
Ella Despidio a su amor el partio en un barco en el muelle de San Blas
El juro y que volveria y empapada en llanto ella juro que esperaria
Miles de lunas pasaron y siempre ella estaba en el muelle esperando
Muchas tardes se anidaron se anidaron en su pelo y en sus labios.
Llevaba el mismo vestido y por si el volviera no se fuera a equivocar
Los cangrejos le mordian sus ropajes, su tristeza y su ilusion
Y el tiempo se escurrio y sus ojos se le llenaron de amaneceres
Y del mar se enamoro y su cuerpo se enrraizo en el muelle.


Sola, sola, con su amor. Sola, en el muelle de San Blas.


Su cabello se blanqueo pero ningun barco a su amor le devolvia
Y en el pueblo le decian, le decian la loca del muelle de San Blas
Y una tarde de abril la trataron transladar al manicomio
Nadie la pudo arrancar y del mar nunca jamas la separaron.



Sola. sola en el olvido. Sola, sola con su espiritu.
Sola, sola con el sol y el mar. Sola
Sola, sola en el olvido, Sola, sola con su espiritu.
Sola, sola con su amor el mar. Sola, en el muelle de San Blas.
Se quedo, se quedo, sola, sola.
Se quedo, se quedo, con el sol y con el mar
Se quedo ahi, se quedo hasta el fin.
Se quedo ahi, se quedo, en el muelle de San Blas
Sola, Sola se quedo.



© LaCuerda.net · aviso legal · privacidad · contacto