Acordes de Guitarra » M »Maná » Mariposa traicionera (Tab)

Mariposa traicionera
Maná

Letras, Acordes y Tabs para Guitarra, Bajo y Ukulele

  • A VOLAR!!!!
    
    INTRO
    
    Em D C G
    
    
    Em                 D
    Eres como una mariposa, vuelas y te posas 
                    C
    vas de boca en boca
                                  G
    fácil y ligera de quien te provoca
    Em                      D
    Yo soy raton de tu ratonera
                                 C
    trampa que no mata pero no libera
                       G
    vivo muriendo prisionero.
    
    
  • Fm D# C# G#
    
    
    Fm                 D#
    Eres como una mariposa, vuelas y te posas
                    C#
    vas de boca en boca
                                  G#
    fácil y ligera de quien te provoca
    Fm                      D#
    Yo soy raton de tu ratonera
                                 C#
    trampa que no mata pero no libera
                       G#
    vivo muriendo prisionero.
    
    
    C#   D#         G#
    Mariposa traicionera
               Fm
    
  • Este es el tab completo de la rola dedicada a las mujeres infieles,
    tienes mas riffs que los anteriores y el solo pienso que suena mejor,
    no inclui los acordes, pues ya estan muy repetidos. A tocar:
    
    
    *Intro:
    
    1. -4-4-4-4-8-8-8-4-8-4-6-3-|-3-3-3-3-6-6-6-3-6-3-4-1-|
    2. -6-6-6-6-9-9-9-6-9-6-8-4-|-4-4-4-4-8-8-5-4-8-4-6-2-|
    3. -------------------------|-------------------------|
    4. -------------------------|-------------------------|
    5. -------------------------|-------------------------|
    6. -------------------------|-------------------------|
                                      *riff princ.
    1. -----4---4---4---3---1--------|------------|
    2. –2/6---6---6---4---2---1-4-1--|------------|
    3. ---------------------------1--|-1-0--------|
    4. ------------------------------|-----3-1-3--|
    5. ------------------------------|------------|
    6. ------------------------------|------------|
    
    
    Eres como una mariposa,
    vuelas y te posas,
    vas de boca en boca,
    facil y ligera de quie
  •     Em                D                                   C
       Eres como una mariposa, vuelas y posas vas de boca en boca,
    1. ---8---8----8---8--|-----6------6------6------6-----|----4---|
    2. ---9---9----9---9--|-----8------8------8------8-----|----6---|
    3. --10--10---10--10--|-----8------8------8------8-----|----6---|
    4. --10--10---10--10--|-----8------8------8------8-----|----6---|
    5. -------------------|--------------------------------|--------|
    6. -------------------|--------------------------------|--------|
                                       G
        fácil y ligera de quien te provoca.
    1. -----4-----4-----4------|---4---4---4---|------------|
    2. -----6-----6-----6------|---4---4---4---|------------|
    3. -----6-----6-----6------|---5---5---5---|------------|
    4. -----6-----6-----6------|---6---6---6---|-/6-5-------|
    5. ------------------------|---------------|------8-6-8-|
    6. ------------------------|---------------|------------|
    
    
       Em                      D (riff 1)                         C
       Yo soy ratón de tu ratonera, trampa que no mata pero no libera,
    
  • e|------------888---8----------------666-----6---------|
    b|--9-9-9-9-9-999-9-9--9-11-8--88888-888-8---8-8-9-6---|
    g|-1010101010----10---10-12-8--88888-----8-----810-6---|
    d|-----------------------------------------------------|
    a|-----------------------------------------------------|
    e|-----------------------------------------------------|
    
    e|--------------------------------------------|
    b|--------9---9---9---9---8---8-6-------------|
    g|-6/10-10-10--10--10--10---8-----6-5/8/5-----|
    d|--------------------------------------------|
    a|--------------------------------------------|
    e|--------------------------------------------|
    
    e|------------------|
    b|------------------|
    g|------------------|
    d|-5/6-5/3-1-3------|
    a|------------------|
    e|------------------|
    
  • FAm - D# - C# - G# - Fm
    
    |-------------8-8-8----8----6--------------6-6-6---6--------|
    |--9--9--9--9-9-9-9--9-9--9-8-8--8-8-8-8-8-8-8-8-8-8-8--9\6-|
    |-10-10-10-10-------10---10---8--8-8-8-8-8-------8---8-10\6-|
    |-----------------------------------------------------------|
    |-----------------------------------------------------------|
    |-----------------------------------------------------------|
                                                Outro
    |--------------------------------------x--------------|
    |-----9----9----9----9\---8\-----------x--------------|
    |-/10---10---10---10\---8\----5--8-5---x---5----------|
    |----------------------------/6-10-6---x---6--8-6-5-6-|
    |--------------------------------------x-----10-8-6-8-|
    |--------------------------------------x--------------|
    
    - (*) Outro 2° guitarra -  
    
    
    
    
  • intro
    1------------------8--8--8------8--------------
    3--9---9---9---9---9--9--9--9---9--9---11--8
    3--10--10--10--10-----------10-----10--12--8---
    4-----------------------------------------------
    5-----------------------------------------------
    6-----------------------------------------------
    
    1-----------6--6--6------6-------------
    28-8-8-8----8--8--8---8--8--8--9---6---
    38-8-8-8--------------8-----8--10--6---
    4--------------------------------------
    5--------------------------------------
    6--------------------------------------
    
    1--------4----4---4--------------------------------*
    2---2/6-----6---6--------9---8----6----------------*
    3---------------------8----8---8-------5--5/8---5--*
    4--------------------------------------------------*
    5--------------------------------------------------*
    6--------------------------------------------------*
    
    1----------------------------------
    2----------------------------------
    3----------------------------------
    4---5h6---5-
  • Hola espero que les guste el tab :D
    
     Intro:
    
    G||----------5---------------------3---5----5-8----||
    D||-3-6-33-6-----5----5-----3----3---6---66-----65-||
    A||------------6---66---6/4---44-------------------||
    E||------------------------------------------------||
    
     Verso :
    Eres como una mariposa...
    
    G||----------5---------------------3---5----5-8----||
    D||-3-6-33-6-----5----5-----3----3---6---66-----65-||
    A||------------6---66---6/4---44-------------------||
    E||------------------------------------------------||
    
    Yo soy raton de tu ratonera...
    
    G||----------5---------------------3---5-||
    D||-3-6-33-6-----5----5-----3----3---6---||
    A||------------6---66---6/4---44---------||
    E||--------------------------------------||
    
     PreCoro
    Mariposa traicionera...
    
    G||---------------5-------------------------------||
    D||---3---------6---6-----------3-----------------||
    A||-4--4-6----6-------8----8--4---4-6----6--3-5-7-||
    E||--------66-----------88------------66----------||
    
     Coro
    Ay,mariposa de amor...
  • Antes que nada un saludo a todos los músicos de Anzumito: 
    Gustavo, Lucho, Fernando, David, Oscar, Johny y Miguel... 
    y  aquí les va: 
    
    El( / )significa slide
    
    Intro
    
    
            Fm                  D#               C#               G#
    G|-------------------|---0-----0-3---|---------------|-----------------|
    D|-------------------|-1---1-1-----1-|---3-----3-3-6-|-----------------|
    A|-----------------3-|---------------|-4---4-4-------|---3-----3-6-----|
    E|-1--4--1-1--4-4----|---------------|---------------|-4---4-4-----0-1-|
    
    
    Verso
    
            Fm                   D#              C#                G#
    G|-------------------|---0-----0-3---|---------------|-----------------|
    D|-------------------|-1---1-1-----1-|---3-----3-3-6-|-----------------|
    A|-----------------3-|---------------|-4---4-4-------|---3-----3-6-----|
    E|-1--4--1-1--4-4----|---------------|---------------|-4---4-4-----0-1-|
    
    Eres como una mariposa, vuelas y te posas vas de boca en boca, fácil 
    y ligera 
  • +
    ¡Colabora con nosotros!
    Envíanos tu versión de esta canción
  • Tutorial
    HD
    Como tocar MARIPOSA TRAICIONERA en GUITARRA - MANA; Tutorial KARMA GUITAR
    6:18
  • Tutorial
    Como tocar MARIPOSA TRAICIONERA en guitarra acustica
    4:08
  • Tutorial
    HD
    Como Tocar Mariposa Traicionera en Guitarra Acustica Acordes (HD)
    Tutorial
    3:52
  • Tutorial
    HD
    Como tocar Mariposa Traicionera Intro
    0:30
  • Tutorial
    Como tocar Mariposa Traicionera Mana
    7:52

Letra de Mariposa traicionera
Eres como una mariposa, vuelas y te posas
vas de boca en boca
fácil y ligera de quien te provoca
Yo soy raton de tu ratonera
trampa que no mata pero no libera
vivo muriendo prisionero.
Mariposa traicionera
todo se lo lleva el viento
mariposa no regreso.
Ay, mariposa de amor, mi mariposa de amor,
ya no regreso contigo
ay, mariposa de amor, mi mariposa de amor,
nunca jamas junto a ti
vuela amor, vuela dolor,
y no regreses a un la'o
y ábrete de flor en flor
seduciendo a los pistilos
y vuela cerca del sol
pa' que sientas lo que es dolor.
OTRA VEZ EL INTRO
Con los mismos acordes de la primera estrofa:
Ay mujer, como haces daño
pasan los segundo cual si fueran años
mira estos celos me están matando.
Ay mujer, que fácil eres
abres tus alitas, muslos de colores
donde se posan tus amores.
Mariposa traicionera
todo se lo lleva el viento
mariposa no regreso.
Ay, mariposa de amor, mi mariposa de amor,
ya no regreso contigo
ay, mariposa de amor, mi mariposa de amor,
nunca jamas junto a ti
vuela amor, vuela dolor,
que tengas suerte en tu vida
ay, ay, ay, ay, ay, dolor
yo te lloré todo un río
ay, ay, ay, ay, ay, amor
tú te me vas a volar.
ó A/B:022222
ó incluso B:224442
Para terminar se tocan los mismos acordes
que en el intro.
SUERTE!!!
Luego mando los riffs y el solo.




[Mariposa traicionera chords][Mariposa traicionera cifra]
© LaCuerda.net · aviso legal · privacidad · es · en · pt · contacto