Acordes de Guitarra » M »Maná » Eres mi religión (Tab)

Eres mi religión
Maná

Letras, Acordes y Tabs para Guitarra, Bajo y Ukulele

  • E  Emaj7  C#m
    
    F#m                   B                     E     A   E
    Iba caminando por las calles empapadas en olvido
    F#m                         B                     E      A  E
    iba por los parques con fantasmas y con ángeles caídos
    F#m                    B                  E             A      
    iba sin luz , iba sin sol , iba sin un sentido , iba muriéndome
    F#m                  B                E       A   E   
    iba volando sobre el mar con las alas rotas .
    
    F#m                           B                   E        A   E
    Hay amor , apareciste en mi vida y me curaste las heridas 
    F#m                                B                         E    A  E  
    hay amor , eres mi luna , eres mi sol , eres mi pan de cada día.
    F#m                B                E                 A              
    Apareciste con tu luz , no nunca te vallas , no no te vallas no
    F#m                     B            E       A   E 
    eres la gloria de los dos , asta la muerte
    
    
  • Emaj7 Emaj7*  C#m  B( al final estan las notas
                    Parecen complicadas pero no lo son)
    
    F#m                   B                     E     A
    Iba caminando por las calles empapadas en olvido
    F#m                        B                     E
    iba por los parques con fantasmas y con ángeles caídos
    F#m                    B                  E             A
    iba sin luz , iba sin sol , iba sin un sentido , iba muriéndome
    F#m                  B                E
    iba volando sobre el mar con las alas rotas .
    
    F#m                           B                   E        A
    Hay amor , apareciste en mi vida y me curaste las heridas
    F#m                                B                         E
    hay amor , eres mi luna , eres mi sol , eres mi pan de cada día.
    F#m                B                E                 A
    Apareciste con tu luz , no nunca te vallas , no no te vallas no
    F#m                     B            E
    eres la gloria de los dos , asta la muerte
    
  • Dm  G7  C  F  Em
    Dm                   G7                    C     F/Em
    Iba caminando por las calles empapadas en olvido
    Dm                   G7                           C     F/Em
    iba por los parques con fantasmas y con ángeles caídos
    Dm                   G7                    C            F      Em
    iba sin luz , iba sin sol , iba sin un sentido , iba muriéndome
    Dm               G7               C            F/Em
    iba volando sobre el mar con las alas rotas .
    
    Dm                   G7                           C     F/Em
    Hay amor , apareciste en mi vida y me curaste las heridas
    Dm                       G7                           C     F/Em
    hay amor , eres mi luna , eres mi sol , eres mi pan de cada día.
    Dm               G7                C                 F         Em
    Apareciste con tu luz , no nunca te vallas , no no te vallas no
    Dm            G7                C          F/Em
    eres la gloria de los dos , asta la muerte
    
    B                                     Dm
    
  • C - Cmaj7 - Am
    
     Dm                  G                   C       F-C-F
    Iba caminando por las calles empapadas en olvido,
     Dm                    G                      C        F-C-F
    iba por los parques con fantasmas y con ángeles caídos,
     Dm                     G            C         F - C -    F
    iba sin luz, iba sin sol, iba sin un sentido, iba muriéndome;
     Dm                   G              C    F-C-F
    iba volando sobre el mar con las alas rotas.
    
    
     Dm                        G                   C         F-C-F
    ¡Ay, amor! Apareciste en mi vida y me curaste las heridas.
     Dm                             G                    C       F-C-F
    ¡Ay, amor! Eres mi luna, eres mi sol, eres mi pan de cada día.
     Dm               G            C          F      C            F
    Apareciste con tu luz. No, nunca te vayas, ¡oh!, no te vayas, no.
     Dm                      G            C     F-C-F
    Tú eres la gloria de los dos hasta la muerte.
    
  • ERES MI RELIGIÓN
    MANÁ
    
    e|-----------------------------|
    b|-----5-----5----------4------|
    g|---4-----4-------6--------4--|
    d|-2-----1-------6----6---6----|
    a|-------------4---------------|
    e|-----------------------------|
    
    Iba caminando por las calles empapadas en olvido
    e|--------2--------2------------------------------|
    b|------------------------------------------------|
    g|------2-------2-----------8-----9--------8-----9|
    d|---4-------4-----------9-----9--------9-----9---|
    a|---4-------2--------7--------------7------------|
    e|------------------------------------------------|
    Iba por los parques con fantasmas y ángeles caídos
    e|--------2--------2------------------------------|
    b|------------------------------------------------|
    g|------2-------2-----------8-----9--------8-----9|
    d|---4-------4-----------9-----9--------9-----9---|
    a|---4-------2--------7--------------7------------|
    e|------------------------------------------------|
    Iba sin luz iba sin sol iba sin un sentido, iba mu
  • Intro:
    
    e|-----0---------0------------------------------|
    B|---0-0---4-----4-----------4------------------|
    G|-1-------4---4--------6--------4-6------------|
    D|-2-------4----------6---6----6----------------|
    A|-2-------2--------4---------------------------|
    E|-0--------------------------------------------|
    
    Verso: 
    e|---------2-------2----------------------------|
    B|------2--2----4--4--------0--------0----------|
    G|----4-------4---------------2--------2--------|
    D|-----------------------2--------2-------------|
    A|---------------------2--------0---------------|
    E|----------------------------------------------|
    
    Final del verso:
    
    e|-2-x-x-2-x-2-x-2--2-x-x-2-2-2-x-2-2--0-x-x-0-0-0-x-0-0--|
    B|-2-x-x-2-x-2-x-2--4-x-x-5-5-5-x-4-4--0-x-x-0-0-0-x-0-0--|
    G|-2-x-x-2-x-2-x-2--4-x-x-4-4-4-x-4-4--1-x-x-2-2-2-x-1-1--|
    D|-4-x-x-4-x-4-x-4--4-x-x-4-4-4-x-4-4--2-x-x-2-2-2-x-2-2--|
    A|-4-x-x-4-x-4-x-4--2-x-x-2-2-2-x-2-2--2-x-x-2-2-2-x-2-2--|
    E|-2-x-x-2-x-2-x-2--x-x-x-x-x-x-x-2-2--0
  • Intro ('Iba sin luz, iba sin sol...')
    G|---------------------11-13-------|---------------------11--13--11-----|
    D|---11---13-9------11-------------|---11---13-9------11------------14~-|
    A|-9-------------------------------|-9----------------------------------|
    E|----------------12-----------4/5-|----------------12------------------|
    
    Verso ('Ay amor, apareciste en mi vida...')
    G|------|-------------------------------------|----------------------------------|
    D|------|-------------------------------------|----------------------------------|
    A|------|--------0-22-222--2------------------|--------0-22-222--2---------------| x2
    E|-12/2-|-22-222------------00-000-4-55-555-4-|-22-222------------00-000-000-000-|
    
    Pre-Coro ('En un mundo de ilusion...')
    G|--------------------------------------------------------------|
    D|--------------------------------------------------------------|
    A|-22-222---22-222---4~---2~---11111111--0-0-0000--222/14141414-|
    E|---------2--------------------
  • El bajo entra recien en la 4ta vuelta del canto, creo:
    A)
        F#m       B          E      A (1º vez)E (2º vez)
    G|------11-|-----|-----9s13-----|--------|-----9s13-|
    D|---11----|-9---|---9------4-6-|-7--7-6-|---9------|
    A|-9-------|-----|-7------------|--------|-7--------|
    E|---------|---7-|--------------|--------|----------| x4
    
    B)
    
          B            B      C#m/B          F#
    G|-----------|-----------|------|------------------|
    D|-----------|-----------|------|------------------|
    A|-2-2---2-2-|-2-2---2-2-|-4--2-|------------------|
    E|-----2-----|-----2-----|------|-2-2-2-2--2-2-2-2-|
    
              A               B
    G|------------------|-----------|
    D|------------------|------4--4-|
    A|-0-0-0-0--0-0-0-0-|-2--2------|
    E|------------------|-----------|
    
    Estribillo:
    
         E       G#m      C#m       E7      A/G#m      F#m
    G|--------|--------|--------|--------|----------|--------|
    D|--------|--------|--------|--------|----------|--------|
    A|--------|--------|-4--4-4-
  • H-crash
    h-contras
    ho- contras un poco abiertos
    R-ride
    s-slpash
    t-tarolaa
    t1-tomb izquierdo
    t2-tomb derecho
    t3-tomb izquierdo
    b-bombo
    r-se pega en el aro de la tarola
    f-flam
    empieza la cancion con una caja de ritmos
    aqui no toca el baterista
    
    iba caminano por las calles
    empapadas en olvido
    iba por los parques con fantasmas
    y con angeles caidos
    hiba sin luz, hiba sin sol,
    hiba sin un sentido,
    hiba muriendome,
    hiba volando sobre el mar,
    con las alas rotas...
    
    aqui empieza la bateria
    
    RIFF 1
             hay amor apareciste...
    H |------x----------------------------------------------------------------|
    h |--------x-xxx-x-x-xxx-x-x-xxx-x-x-xxx-x-x-xxx-x-x-xxx-x-x-xxx-x-x-xxx--|
    t |-oo-------o-------o-------o-------o-------o-------o-------o-------o----|
    t1|----o------------------------------------------------------------------|
    t2|---o-------------------------------------------------------------------|
    t3|----------------------------------------------------------
  • +
    ¡Colabora con nosotros!
    Envíanos tu versión de esta canción
  • Tutorial
    HD
    Como tocar Eres Mi Religion MANA en Guitarra Acustica (HD)
    Tutortial Guitarra
    7:47
  • Tutorial
    HD
    Como Tocar Eres Mi Religion De Mana En Guitarra Acustica - Leccion Para Principiantes
    9:40
  • Tutorial
    Como tocar - Eres mi religión de Mana - Tutorial Guitarra (HD)
    5:37

Letra de Eres mi religión
Iba caminando por las calles empapadas en olvido
iba por los parques con fantasmas y con ángeles caídos
iba sin luz , iba sin sol , iba sin un sentido , iba muriéndome
iba volando sobre el mar con las alas rotas .
Hay amor , apareciste en mi vida y me curaste las heridas
hay amor , eres mi luna , eres mi sol , eres mi pan de cada día.
Apareciste con tu luz , no nunca te vallas , no no te vallas no
eres la gloria de los dos , asta la muerte
En un mundo de ilusión , yo estaba desahuciado , estaba abandonado
vivía sin sentido , pero llegaste tú .
Hay amor , tú eres mi religión
tu eres luz , tu eres mi sol
abre el corazón , abre el corazón .
Hace tanto tiempo corazón , viví en dolor y en el olvido
hay amor ,eres mi bendición , mi religión eres mi sol que cura el frío
Apareciste con tu luz , noo no , no me abandones , no nunca mi amor
gloria de los dos , tu eres sol , tu eres mi todo , todo tu eres bendición
En un mundo de ilusión , yo estaba desahuciado , estaba abandonado
vivía sin sentido , pero llegaste tú .
Hay amor , tú eres mi religión
tu eres luz , tu eres mi sol
abre el corazón , abre el corazón .
Hay amor , tú eres mi bendición
tu eres luz , tu eres mi sol
Viviré siempre a tu lado
con tu luz
moriré estando a tu lado
eres gloria y bendición
eres tu mi bendición
eres tu mi religión
eres tu mi eternidad y asta eres salvación
no tenia nada , y hoy te tengo con la gloria
con la gloria , con la gloria , amor amor amor amor amor
eres tu mi bendición , eres mi luz eres mi sol .
Bueno espero que les haya servido la trasncripcion
Ah, esta rola se la dedico a mi guerita(Brenda) que me inspira
y me eleva a lo infinito en un rayo de luz que ciega a mi corazon
basta de jaladas y cualquier comentario porfavor a mi mail:
ihg135@hotmail.com




[Eres mi religión chords][Eres mi religión cifra]
© LaCuerda.net · aviso legal · privacidad · es · en · pt · contacto