Acordes de Guitarra » M »Maná » Vivir sin Aire (Tab)

Vivir sin Aire
Maná

Letras, Acordes y Tabs para Guitarra, Bajo y Ukulele

  • SOL SIm DO RE (4v)
    
    
    SOL     SIm   DO    RE            SOL     (SIm DO RE)
    Como Quisiera    poder vivir sin aire
    SOL      SIm  DO   RE             SOL     (SIm DO RE)
    como quisiera    poder vivir sin agua
    SOL      SIm  DO     RE             SOL   (SIm DO RE)
    Me encantaría    quererte un poco menos
    SOL      SIm  DO     RE           SOL     (SIm DO RE)
    como quisiera     poder vivir sin ti...
    
    
    DO      RE     MIm        DO
    Pero no puedo, siento que muero
    SOL                       RE  (RE4 RE RE2 RE)
    me estoy ahogando sin tú amor.
    MIm              DO            SOL  (RE)
    Como quisiera poder vivir sin aire
    MIm             DO        RE        (RE4)
    
  •     (G)       (Bm)     (C)      (D)                (Final)
    E----3------5---2---5p2--0----3---2-----3---|--3-2-2-0-0---------|
    B----3-3----3---3--3-----1---1----3-3p5--5--|--3-3-3-1-1--3-31~-|
    G----0--0-0-----2-2------0--0-----2---------|-------------4-42~-|
    D---------------------------------0---------|--------------------|
    A---------------2--------3------------------|--------------------|
    E----3---3----------------------------------|--------------------|
    
    Harmonica:
    e-----12~~~-10-12-10-12-10-10-7~--7-8-7-8-7-7-3~-3p5~--|
    B---8~-------------------------------------------------|
    G------------------------------------------------------|
    D------------------------------------------------------|
    A------------------------------------------------------|
    E------------------------------------------------------|
    
    G           Bm       C       D                  G Bm C D
     Como quisiera       poder vivir sin aire
    
    riff2
    
  • e|-----3----------5---2------5-------0------3---------2-------3--------|
    A|-----3--------------3----3---3-----1----1---1-------3--3-5----5/3----|
    G|-------0-----0------2--2-------0---0--0-------0-----2----------------|
    D|----------------------------------------------------0----------------|
    A|---------0/2-----------------------3---------------------------------|
    E|-----3--------------2------------------------------------------------|
    
    e|-----3--------------2------5-------0------3-----3-3--2-2--0-0---------|
    A|-----3--------------3----3---3-----1----1---1---3-3--3-3--1-1--3-3----|
    G|-------0------0-----2--2-------0---0--0------------------------4-4----|
    D|----------------------------------------------------------------------|
    A|---------0/2-----------------------3----------------------------------|
    E|-----3--------------2-------------------------------------------------|
    
    e|-----3----------5---2------5-------0------3---------2-------3---------|
    A|-----3--------------3----3---3-----1----1---1-------3--3-5----5/3-----|
    G|-------0-----0------2--2-------0---0--0-------0-----2-----------------|
    D|----------------------------------------------------0-----------------|
    A|---------0/2-----------------------3----------------------------------|
    E|-----3--------------2-------------------------------------------------|
    
  • 1|------0-0-0-|--------0-|------0-2-0-0-|---------------0-----|
    2|0-1-3---1-1-|1-3-1-0-1-|1-1-3-----0-0-|0-0-0-1-0-----0-0----|
    3|--------2-0-|--------2-|----------0-2-|---------2---0---0---|
    4|--------2-2-|--------0-|----------0-0-|------------2-----2--|
    5|--------0-0-|--------0-|----------2-0-|-----------2-------2-|
    6|--------0-3-|--------2-|----------3-2-|----------0---------0|
    
    
    I----------0-0|----------0-----x|-------0-2-3-2-5-3-0-------0-0|
    I0-0-1-3-0-1-1|1-1-3-1-0-1-1-0-x|1-1-1-3--------------3-1-0-0-0|
    I----------2-0|----------2-----x|---------------------------0-2|
    I----------2-2|----------0-----x|---------------------------0-0|
    I----------0-0|----------0-----x|---------------------------2-0|
    I----------0-3|----------2-----x|---------------------------3-2|
    
    I------------------0------|------------0------0--------12-----|
    I-0-0-0-1-0-------0-0-----|-------0-1--0-0----0----------12---|
    I-----------2----0---0----|-0-0-2------2--2-0-2-0---4------12-|
    I---------------2-----2---|------------0------1--4--4---------|
    I--------------2-------2--|------------0------2-----2---------|
    
  •    G             Bm           C             D
    1|-3-3-------5-|-2-----5----|-0-----3-----|-2-----3---------|
    2|-3-3---------|-----3---3--|-1---1---1---|-3-3s5---5s3-----|
    3|-0-0-----0---|----------2-|-0-0-------0-|-2---------------|
    4|-0-----------|---0--------|-------------|-----------------|
    5|-2---0h2-----|------------|-3-----------|-----------------|
    6|-3---------5-|-2----------|-------------|-----------------|
    
       G             Bm           C             D
    1|-3-3-------5-|-2-----5----|-0-----3-----|-3-2-2-0-0-------|
    2|-3-3---------|-----3---3--|-1---1---1---|-3-3-3-1-1-------|
    3|---0-----0---|----------2-|-0-0-------0-|-----------3-3-0-|
    4|-------------|---0--------|-------------|-----------4-4-0-|
    5|-----0h2-----|------------|-3-----------|-----------------|
    6|-3---------5-|-2----------|-------------|-----------------|
    
       G             Bm           C             D
    1|-3-3-------5-|-2-----5----|-0-----3-----|-2-----3---------|
    2|-3-3---------|-----3---3--|-1---1---1---|-3-3s5---5s3-----|
    3|---0-----0---|----------2-|-0-0-------0-|-2---------------|
    
  • e|-3---------5-|--2-----5----|--0----3-----|--2-------3------|
    B|-3-----------|--3---3---3--|--1---1--1---|--3---3s5---53---|
    G|---0-----0---|--2--2-----0-|--0--0----0--|--2--------------|
    D|-------------|-------------|-------------|--0--------------|
    A|-----0h2-----|--2----------|--3----------|-----------------|
    E|-3-----------|-------------|-------------|-----------------|
    
    e|--3---------5-|--2-----5----|--0----3----|--3-3--2-2--0-0------|
    B|--3-----------|--3---3---3--|--1---1--1--|--3-3--3-3--1-1--3-3-|
    G|----0-----0---|--2--2-----0-v--0--0------|-----------------4-4-|
    D|--------------|-------------|------------|---------------------|
    A|------0h2-----|--2----------|--3---------|---------------------|
    E|--3-----------|-------------|------------|---------------------|
    
    e|--3---------5-|--2-----5----|--0----3-----|--2------3------|
    B|--3-----------|--3---3---3--|--1---1--1---|--3--3s5---5-3--|
    G|----0-----0---|--2--2-----0-|--0--0----0--|--2-------------|
    D|--------------|-------------|-------------|--0-------------|
    A|------0h2-----|--2----------|--3----------|----------------|
    E|--3-----------|-------------|-------------|----------------|
    
  • Versos e introducción
     G              Bm       C              D
    G-----------7-7------------7-7-7-7----------------------|
    D------------------9-7h9---------10-9-7-----------------|
    A--10-10-10-----10----------------------9-7-7h9---------|
    E-------------------------------------------------------|
         Como   quisiera                  poder...
    
    
    Versos e introducción
     G              Bm       C              D
    G-----------7-7------------7-7-7-7----------------------|
    D------------------9-7h9---------10-9-7-----------------|
    A--10-10-10-----10----------------------9-7-7h9---------|
    E-------------------------------------------------------|
          Como   quisiera                 poder...
    
    Pre coros
       C        D       Em    C
    G------------------------------------|
    D---------------------------5--2-----|
    A--3--------5-----5-7-----3-------3--|
    E-------3-------7------7-------------|
        Pero no puedo    siento que muero
    
       G           Bm            D
    G--------------------------------------------
  • Bueno esta es la versión completa de todos los tabs de esta 
    canción, con varias correcciones y mas completa.
    
    Intro:
    G |-----------------7-7-7-7-5-4-4-4/5\4------------------7-
    D |--5-5/7-9-9-9/10---------------------7-5-5/7-9-9-9/10---
    A |--------------------------------------------------------
    E |--------------------------------------------------------
    
    G |--7-7-7-5-4-4-4/5\4----|--------------------------------
    D |---------------------5-|--------------------------------
    A |-----------------------|-----0-2-2-2/3-3-3/5-5\3-2-----0
    E |-----------------------|-3-3-----------------------3-3--
    
    G |--------------------------------------------------------
    D |--------------------------------------------------------
    A |--2-2-2/3-3-3/5(mantener nota)--------------------------
    E |--------------------------------------------------------
    
    
    Verso:
    G |-----------------7-7-7-7-5-4-4-4/5\4------------------7-
    D |--5-5/7-9-9-9/10---------------------7-5-5/7-9-9-9/10---
    A |---
  • VIVIR SIN AIRE
    
    G          Bm     C    D              G      Bm C D-G
     Si Si sol mi  re   do do  do re  do  si sol
     Co-mo qui-sie-ra   po-der vi-vir sin ai-re
     co-mo qui-sie-ra   po-der vi-vir sin  a-gua
     me en-can-ta-ria   que-rer-te un po-co me-nos
    
    G          Bm     C    D              G Bm C D-G
     si si sol mi  re   do do  do re  do  si
     co-mo qui-sie-ra   po-der vi-vir sin ti
    
               D      Em           C      G
     Mi mi sol sol Fa# mi   mi sol sol mi
     Pe-ro no  pue-do  sien-to que mue-ro
                                  D
     sol  re   si  re  si re  sol fa#
     me es-toy aho-gan-do sin tua-mor
    
     Em                     C              G
     sol sol sol sol sol do do  re mi  sol re si
     Co -mo  qui-sie-ra  po-der vi-vir sin ai-re
     co-mo   qui-sie-ra  po-der vi-vir sin a-gua
    
     Em                      C             D
     sol sol sol sol sol do  do  re mi do  re
     co- mo  qui-sie-ra  cal-mar mi a-flic-ción
     me  en  can-ta-ria  ro-bar  tu co-ra-zon
    
    Esta canción va dedicada de Aldo para Ana Luisa
    y 
  • +
    ¡Colabora con nosotros!
    Envíanos tu versión de esta canción
  • Tutorial
    HD
    Como tocar MANA Vivir Sin Aire guitarra Tutorial Arpegios acústica y criolla acordes maná
    12:10
  • Tutorial
    Vivir sin aire, Mana - Cover & Tutorial
    4:52
  • Tutorial
    HD
    Como tocar vivir sin aire
    5:34

Letra de Vivir sin Aire
Como Quisiera poder vivir sin aire
como quisiera poder vivir sin agua
Me encantaría quererte un poco menos
como quisiera poder vivir sin ti...
Pero no puedo, siento que muero
me estoy ahogando sin tú amor.
Como quisiera poder vivir sin aire
como quisiera calmar mi aflicción
como quisiera poder vivir sin agua
me encantaría robar tú corazón.
Como pudiera un pez nadar sin agua
como pudiera un ave volar sin alas
como pudiera la flor crecer sin tierra
como quisiera Poder vivir sin ti... 0h no
Pero no puedo, siento que muero
me estoy ahogando sin tú amor.
Como quisiera poder vivir sin aire
como quisiera calmar mi aflicción
como quisiera poder vivir sin agua
me encantaría robar tú corazón.
Como quisiera lanzarte al olvido
como quisiera guardarte en un cajón
como quisiera borrarte de un soplido
me encantaría matar esta canción




[Vivir sin Aire chords][Vivir sin Aire cifra]
© LaCuerda.net · aviso legal · privacidad · es · en · pt · contacto