Acordes de Guitarra » M »Maná » Se me olvidó otra vez (Tab)

Se me olvidó otra vez
Maná

  • Letra y Acordes
                   LA                 MI
    Probablemente ya, de mí te has olvidado,
                   MI7                LA
    y sin embargo yo, te seguiré esperando.
                                         MI
    no me he querido ir, para ver si algún día,
                     MI7                    LA
    que tú quieras volver, me encuentres todavía.
    
                   LA                MI
    Por eso aún estoy, en el lugar de siempre,
                   MI7                LA
    en la misma ciudad, y con la misma gente.
                                             MI
    Para que tú al volver, no encuentres nada extraño,
                 MI7              LA
    y sea como ayer, y nunca más dejarnos.
    
    CORO
    
    
  • Tablatura
    Esta transcripción ya habia sido colocada por otro colaborador, la diferencia es que
    la anterior tenia algunos errores y además, agrego la diferencia en la tabletura 
    intercalando la 1era y 2da guitarra,
    para lograr la armonia.
    
    
    Estrofa:
    E||----------------|---------------------|-------------|
    B||-2-2-0-2-0-2----|-------3-2-2-0-------|-3-3-2-3-2-3-|
    G||----------------|-2-2-2---------------|-------------|
    D||----------------|---------------------|-------------|
    A||----------------|---------------------|-------------|
    E||----------------|---------------------|-------------|
    Probablemente ya    de mi te has olvidado y sin embargo yo
    
    E||-------0---------|-2-2-0-2-0-2----|-------4-2-2-0-------
    B||-0-0-0---3-3-2---|----------------|-2-2-2---------------
    G||-----------------|----------------|---------------------
    D||-----------------|----------------|---------------------
    A||-----------------|----------------|---------------------
    E||-----------------|----------------
  • Tab p/Bajo
    Probablemente ya de mí te has olvidado... 
    y sin embargo yo te seguiré esperando...
     no me he querido ir para ver si algún día...
     que tú quieras volver me encuentres todavía...
    
    
    G|----------------|--------------------|-------------------|
    D|----------------|--------------------|-------------------|
    A|----------7---7-|-----7---------7----|---7----7----7---7-|
    E|-0-2-4-5----5---|-0-7----7-0--7----7-|-5----5----5----5--|
    
    Por eso aún estoy...
    
    G|--------------------------|
    D|--------------------------|
    A|-----7---------7------7---|
    E|-0-7----7-0--7----7-5---5-|
    
    nunca más dejarnos...
    
    
    G|------------|----------|-----------------------|
    D|----------4-|---6-7----|-----------------------|
    A|-----4-5----|-7------7-|----------7-------7----|
    E|-5-7--------|----------|-5-7-0--7----7-5----5--|
    
    Probablemente estoy pidiendo demasiado... se me olvidaba que... ya habíamos terminado...
    
    G|------------|---------|----------------------|
    D|----------4-|---6-7---|-
  • Piano (Teclados)
    Se me olvido otra vez
    
    
    1:1
    Probable    mente ya de mí te has olvidado
    Do#-do#-si-do#-si-do#-la-la-la-  re-do#-do#-si
    
    Y sin   embargo  yo  te seguiré esperando
    Re-re-do#-re-do#-re-si-si-si-mi-re-re-do#
    
    No   me e querido ir   para   ver si algún  día
    Fa#-fa#-mi-fa#-mi-fa#-do#-do#-do#-sol#-fa#-fa#-mi
    
    Que tu quieras volver me encuentres todavía
    Mí-mí-re#-mi-re#-re-mi-fa#-mi-fa#-mi-re-do#
    
    
    LA
    Por eso aun estoy
    Do#-do#-si-do#-si-do#
    
                        MI
    En el lugar de siempre
    La-la-la-re-do#-do#-si
    
    
    En la misma ciudad
    Re-re-do#-re-do#-re
    
                      LA
    Y con la misma gente
    Si-si-si-mí-re-re-do#
    
    
    Para que tu al volver
    Fa#-fa#-mi-fa#-mi-fa#
    
                            MI
    No encuentres nada extraño
    Do#-do#-do#-sol#-fa#-fa#-mi
    
                 RE
    Y sea como ayer
    Mí-mí-re#-mi-re#-re
    
                      LA
    Y nunca más dejarnos
    Mí-fa#-mi-fa#-mi-re-do#
    
    
    1:2
                     RE
    Probable mente estoy
    La-la-la-si-do#-re
    
                     LA
    Viviendo de maceado
    Mí-fa#-mi-fa#-mi-r
  • Piano (Teclados)
    OK este tema esta muy bueno espero que les sirva
    ahi les va
    
    c# c# B c# B c#    A  A  A  D   c# c# B    D  D  c# D c# D
    Probablemente ya   de mi te has olvidado   y sin embargo yo
    
    B   B    B E D D c#   F# F# E F# E  F#    c# c# c# G# F# F# E
    te seguiré esperando  no me querido ir    por ver si algún día.
    
    E    E  D# E   D# D   E  F# E F#    E D C#   c#  c# B c#  B c#
    que tu quieras volver me encuentres todavía.  Por eso aun estoy
    
    A  A  A D   c# c#  B   D  D  c# D  c#  D  B B   B  E D   D c#
    en el lugar de siempre en la misma ciudad y con la misma gente
    
    F# F# E  F# E  F#     c#  c# c# G#  F#   F#  E   E E D# E D# D
    Para que tú al volver no encuentres nada extraño y sea  como ayer
    
    E F# E  F#  E D  C
    y nunca mas dejarnos
    
    Estribillo:
    
    A  A A  B  c# D      F# E F# E F# F# E  c# c# c# E c#  D
    Probablemente estoy  viviendo demasiado se me olvidaba que
    
    B  B  B   E D  D c#    A   A  A B  c# D  F#  E  F# E  F# F# E
    ya habíamos terminado que nunca volverás que nunca me quisiste
    
    c# 
  • +
    ¡Colabora con nosotros!
    Envíanos tu versión de esta canción
  • Tutorial
    Como tocar Se me olvido otra vez de MANA en Guitarra ACORDES
    1:30
  • Tutorial
    Como tocar Maná Se Me Olvidó Otra Vez en guitarra acordes COMPLETO acústica
    9:10
  • Tutorial
    HD
    Como tocar Se me olvido otra vez en Guitarra
    6:07

Letra de Se me olvidó otra vez
Probablemente ya, de mí te has olvidado,
y sin embargo yo, te seguiré esperando.
no me he querido ir, para ver si algún día,
que tú quieras volver, me encuentres todavía.
Por eso aún estoy, en el lugar de siempre,
en la misma ciudad, y con la misma gente.
Para que tú al volver, no encuentres nada extraño,
y sea como ayer, y nunca más dejarnos.
Probablemente estoy, pidiendo demasiado,
se me olvidaba que, ya habíamos terminado.
que nunca volverás, que nunca me quisiste,
se me olvidó otra vez, que sólo yo te quise.
Por eso aún estoy, en el lugar de siempre...



© LaCuerda.net · aviso legal · privacidad · contacto