Acordes de Guitarra » M »Maná » Cuando los Angeles Lloran (Tab)

Cuando los Angeles Lloran
Maná

Letras, Acordes y Tabs para Guitarra, Bajo y Ukulele

  • Bm                    A                          G                     D
      A chico Mendez lo mataron era un defensor y un angel de toda la amazonia
    Bm                    A                    G                      D
      el murió a sangre fría lo sabía color de melo y tambien la policía
    F#m                    Bm                          G                           D
      cuando los angeles lloran lluvia cae sobre la aldea lluvia sobre el campanario
                      A
      pues alguien murió
    
    
    CORO
    
    G              D     A
       Un angel cayó, 
    G              D     A
       un angel murió,
    G              D     A
       un angel se fué
    G           D     A      G
       y no volverá
    
  • C#m B A E C#m B A E
    
    C#m                     B
       A Chico Mendes lo mataron,
                            A
       era un defensor y un ángel
                        E
       de toda la Amazonia.
    
    C#m                    B
       Él murió a sangre fría,
                           A
       lo sabía Collor de Mello
                         E
       y también la policía.
    
    G#m                   C#m
       Cuando los ángeles lloran
                              A
       lluvia cae sobre la aldea,
    
  • C#m
     A Chico Mendez lo mataron
    B                        A
     era un defensor y un angel
                        E        B
     de toda la amazonía
    
    
    C#m
     Elmurió a sangre fría
    B                    A
     lo sabía Collor de Melo
                         E       B
     y también la policía
    
    
    G#m                   C#m
     Cuando los ángeles lloran
                            A
     lluvia cae sobre la aldea
    
  • E/--2------2-0-------3-----3-2-0-------|---2------2-0-------3-----3-0-3-2-0-2-|
    B/--3----3-----3-0---3---3-------2-----|---3----3-----3-0---3---3-------------|
    G/--2--2-----------2-4-4-----------2---|---2--2-----------2-4-4---------------|
    D/--0----------------x-----------------|---0----------------x-----------------|
    A/-------------0-----x---------0-------|------------0-------x------0--------0-|
    E/-------------------3-----------------|--------------------3-----------------|
    
    E/-2-5-3-2-0---0-----0-|-2-2-----------------------|-0-2-3-2-0-----------|----|
    B/-3---------3-2---2---|-3---5-3-2-0---0-----3-----|-----------3-3-2-0-2-|----|
    G/-2-------------0-----|-4-----------2---0-2---0---|---------------------|-2--|
    D/-0-----------2-------|-4-----------------------2-|---------------------|----|
    A/-------------0-------|-2-------------------------|---------------------|----|
    E/---------------------|---------------3---2---0---|-------------0------ |----|
    
    E/-2-5-3-2-0---0-----0-|-2-2-----------------------|-0-2-3-2-0-----------|----|
    B/-3---------3-2---2---|-3---5-3-2-0---0-----3-----|-----------3-3-2-0-2-|----|
    G/-2-------------0-----|-4-----------2---0-2---0---|---------------------|-2--|
    D/-0-----------2-------|-4-----------------------2-|---------------------|----|
    A/-------------0-------|-2-------------------------|---------------------|----|
    E/---------------------|---------------3---2---0---|-------------0------ |----|
    
  • e|---4------4------------|---5-----5^4-2-------|
    B|---5----5---7---5-2----|---4---4--------4----|
    G|---4--4-------------4--|---4-4------------4--|
    D|---2-------------------|---2-----------------|
    A|----------------4------|-------------2-------|
    E|-----------------------|---------------------|
    
    
    
    e|---4------4------------|---5-----5--------------|
    B|---5----5---7---5-2----|---4---4------5--4^2-4--|
    G|---4--4-------------4--|---4-4-----6------------|
    D|---2-------------------|---2--------------------|
    A|----------------4------|--------------2---------|
    E|-----------------------|------------------------|
    
    
    
    e|---4---7-5-4---------2-|-----4---------------------------|---2-4-5-4-2-------------|
    B|---5---------7-5-4-4---|---5---7-5-4---------2----5---2--|-------------5-5--4^2-4--|
    
  • e|--------0-2-4-2-0-------------0--|
    B|-----5------------4-2-----2-0----|
    G|----6---------------2---2--------|
    D|---6------------------2----------|
    A|--4------------------------------|
    E|---------------------------------|
    
    
    e|--------2-4-5-4-2-0-0---------------0-2-4-5-7-0-4-2-0---------|
    B|-----2-----------------4-2--4--0-2-4-------------------4----5-|
    G|---2-------------------------------------------------------6--|
    D|----------------------------------------------------------6---|
    A|---------------------------------------------------------4----|
    E|--------------------------------------------------------------|
    
    
    Este riff lo repite al final de cada estrofa:
    
    e|---4-----5-----4-----5-4-------|
    B|-----5-----5-----5-------7-5---|
    
  • e-------------------------I--------------
    B--9----------------------I----10-9-7----
    G--9----11-13-11-9--------I--9--------9h8
    D--9--9------------11-9-7-I-7------------
    A--7----------------------I--------------
    E-------------------------I--------------
    
    e------------------------I--------------
    B-9----------------------I----10-9-----
    G-9----11-13-11-9--------I--9------9--8p7h8
    D-9--9------------11-9-7-I-7------------
    A-7----------------------I--------------
    E------------------------I--------------
    
    e---------------------------------
    B-9-12-10-9------7----------9-7-5------
    G-9---------11-9-8----8-11-6-------8-6--
    D-9--------------9--9------7-----
    A-7--------------9---------7-------------
    E--------------------------------------
    
  •     Bm                  A
    Al chico Mendez lo mataron, (riff 1)
                            G
    era un defensor y un angel (riff 2)
                     D
    de toda la amazonia,
    1. --4--5--4--5---|-4--5--4--5----|
    2. ---5--5--5--5--|--5--5--5--5---|
    3. ----4--4--4--4-|---4--4--4--4--|
    4. ---------------|---------------|
    5. ---------------|---------------|
    6. ---------------|---------------|
    Bm                  A
    el murio a sangre fria, (riff 1)
                        G
    lo sabia Collor de Melo (riff 2)
                      D
    y tambien la policia.
    1. --4--5--4--5---|-4--5--4--5----|
    2. ---5--5--5--5--|--5--5--5--5---|
    
  • Version Completa y 100% correcta.
    
    *Intro:
    
    -Flauta:
    
     E4  E4  E4 C#4 C#4 C#4 D#4   D#4 D#4 D#4 D#4 F#4 F#4 F#4  E4
    G#4 G#4 G#4  E4  E4  E4 F#4   F#4 F#4 F#4 F#4  A4  A4  A4 G#4
    
    
     E4  E4  E4 C#4 C#4 C#4 D#4   D#4 D#4 D#4 D#4  B3  B3  B3 C#4
    G#4 G#4 G#4  E4  E4  E4 F#4   F#4 F#4 F#4 F#4 D#4 D#4 D#4  E4
    
    
    C#4 C#4 C#4 C#4 F#4 F#4  E4
     E4  E4  E4  E4  A4  A4 G#4
    
    
    ..pues alguien murió (Campanas)
    
    -Campanas:
    
    D#4 E4 F#4   D#4 E4 F#4 B3
    
    
    *Coro: (Para el coro se utiliza un efecto muy raro, no se el nombre
    pero se toca así)
    
    
    B3 E4    B3 E4    B3 B3 E4... se repite varías veces.
    
    
    *Interlude:
    
    -Flauta:
    
     E4  E4  E4  E4 C#4 C#4 D#4   D#4 D#4 D#4 D#4  B3  B3 C#4
    G#4 G#4 G#4 G#4  E4  E4 F#4   F#4 F#4 F#4 F#4 D#4 D#4  E4
    
    
    C#4 C#4  A3  A3 G#3 G#3 F#3 E3
     E4  E4 C#4 C#4  B3  B3  -  -
    
    
    (Se repite el coro)
    
    
    *Solo: (Metele un buen efecto, como un SinPad)
    
    C#3 C#3 E3 E3 C#3 C#3 E3 E3 C#3 C#3 E3 E3 C#3 C#3 E3 E3...muchas veces.
    
    
    (Repite el coro de nuevo)
    
    *Un Rompehielos antes del final
    
  • +
    ¡Colabora con nosotros!
    Envíanos tu versión de esta canción
  • Tutorial
    COMO TOCAR CUANDO LOS ANGELES LLORAN MANA MPE
    1:18
  • Tutorial
    Cuando los angeles lloran ( como tocar)
    2:41

Letra de Cuando los Angeles Lloran
A chico Mendez lo mataron era un defensor y un angel de toda la amazonia
el murió a sangre fría lo sabía color de melo y tambien la policía
cuando los angeles lloran lluvia cae sobre la aldea lluvia sobre el campanario
pues alguien murió
Un angel cayó,
un angel murió,
un angel se fué
y no volverá
Cuando el asesino huía chico Mendez se moría la selva se ahogaba en llanto
el dejo dos lindos crios una esposa valerosa y una selva en agonía
cuando los angeles lloran es por cada árbol que muere cada estrella que se apaga
oh no no no
Un angel cayó,
un angel murió,
un angel se fué
se fué volando de madrugada




[Cuando los Angeles Lloran chords][Cuando los Angeles Lloran cifra]
© LaCuerda.net · aviso legal · privacidad · es · en · pt · contacto