Acordes de Guitarra » M »Mago De Oz » Gaia (Tab)

Gaia
Mago De Oz

Letras, Acordes y Tabs para Guitarra, Bajo y Ukulele

  • Bm F#m Bm F#m
    
    Bm
    Hay veces que no sé
    F#m                              Bm
    si exprimir el sol para sentir calor
                    F#m              Bm
    Y dudo que al nacer llegará a creer
                      F#m
    Que hoy fuera a morir
    
    
    na na na na, na na na na
    
    na na na na, na na na na
    
    Bm
    Intento comprender
    F#m                   Bm
    Él porque de esta decisión
    
  • Cm Cm A# Cm A#X2
    Cm
    Hay veces que no sé
    A#               Cm               A#
    si exprimir el sol para sentir calor
    Cm                A#           Cm
    Y dudo que al nacer llegará a creer
                     A#
    Que hoy fuera a morir
    
    
    na na na na, na na na na
    
    na na na na, na na na na
    
    Cm
    Intento comprender
    A#                   Cm
    Él porque de esta decisión
    A#           Cm
    
  • partes  superiores A  MI, como el  segundo  solo), pero
    creo que lo que  está sacado está bueno, y da una buena
    base para  que otro guitarrista  más perseverante saque
    el resto, o saque  mejor lo  que yo ya  saqué...en  fin
    basta de estupideces y vamos a la tablatura !:
    
    
     [00:00] intro de piano (adaptacion + o - para guitarra)
    -------3~----------3~------------
    ---3-4---------3-4---------------
    -5-----------5-------------------
    ---------------------------------
    ---------------------------------
    ---------------------------------
    
     [00:09]
             Cm                  A#
    -------3-------------------3-------------
    ---3-4---4----4----4---3-4---3----3----3-
    -5-------5----5----5-5-------3----3----3-
    
  • -------3~----------3~------------
    ---3-4---------3-4---------------
    -5-----------5-------------------
    ---------------------------------
    ---------------------------------
    ---------------------------------
    
    [00:09]todo esto se repite X2
    -------3-------------3-------
    ---3-4-----------3-4---3-----
    -5-------5-----5-------------
    --------------5--------------
    -----------------------------
    -----------------------------
    
    --3-1------------------3-----
    -3----4-3----------3-4---3---
    ----------5------5-----------
    ---------------5-------------
    -----------------------------
    
  • +
    ¡Colabora con nosotros!
    Envíanos tu versión de esta canción

Letra de Gaia
Hay veces que no sé
si exprimir el sol para sentir calor
Y dudo que al nacer llegará a creer
Que hoy fuera a morir
na na na na, na na na na
na na na na, na na na na
Intento comprender
Él porque de esta decisión
Si yo jamás odie
Me intento aferrar al valor
Pero no sé fingir
¿Dónde se vende algo de compasión
Para saciar mi soledad?
¿Dónde trafican con sueños de amor
Pues quiero esta angustia dormir?
Recuerdo el día en que mi libertad
No tenia precio ni fin
En cambio hoy daba hasta la eternidad
Por ver mañana el sol salir
Me vengare y todo el mal que me hagas
Yo te lo devolveré
El hombre nunca fue dueño de Gaia
Es justamente al revés
Oigo unos pasos, se quiebra mi voz
Sé que vienen a por mí
Y un sacerdote en nombre de dios
Pregunta ¿quieres confesión?
"Confieso que amé y creí en Dios
De los pobres, justo y moral
Confieso que en la silla
En la que he de morir
Mi alma renacerá"
Me vengare y todo el mal que me hagas
Yo te lo devolveré
El hombre nunca fue dueño de Gaia
Es justamente al revés
Toda mi vida desfila ante mí,
Tantos sueños por cumplir
No tengas miedo, no llores por mí,
Siempre estaré junto a ti.
Oigo los rezos, intento gritar,
Me cubren para no mirar
A los ojos de una cruel humanidad,
La muerte se excita, es el fin.
Me vengare y todo el mal que me hagas
Yo te lo devolveré
El hombre nunca fue dueño de Gaia
Es justamente al revés
Es justamente al revés
Es justamente al revéeeees...
OUTRO:




[Gaia chords][Gaia cifra]
© LaCuerda.net · aviso legal · privacidad · es · en · pt · contacto