Acordes de Guitarra » M »Mago De Oz » El cantar de la luna oscura (Tab)

El cantar de la luna oscura
Mago De Oz

Letras, Acordes y Tabs para Guitarra, Bajo y Ukulele

  • Dm-C-A#-C-D-C-A#-C
    F-C-A#-C-F-C-A#-C
    
     Dm               C
    es el pais de la luna oscura
                         Dm
    es la habitacion deshabitada
                       C
    es la mas bella criatura
                         Dm
    es la dama descorazonada
    
    Dm                       C
    apuestos galanes la acortejan
                                    Dm
    y de aquellos que lo han conseguido
            F                  C
    con el paso del tiempo la dejan
                                 Dm-C-Dm-C
    y ella llorando escoje el olvido
    
  • Dm             
    C
    Es el país de la luna oscura
                     Dm
    es la habitación deshabitada
                   C
    es la más bella criatura
                     Dm
    es la dama descorazonada.
     
    Dm               C
    Apuestos galanes la cortejan
                       Dm
    y aquellos que lo han conseguido
    F                      C
    con el paso del tiempo la dejan
                                Dm-C-Dm-C
    y ella llorando escoge el olvidooooo....
    
     
    
  • ---------------------------------------------------------
    --6-----6-5-----------3------3--5---5--------------------
    ------7-----7--------------3------5----------------------
    ----7---------------5----5-------------------------------
    ---------------------------------------------------------
    ---------------------------------------------------------
    
    solo acústico (00:16)
    -------5---------------------------5---------10-8-8-8----
    --6--8---8-6-5----------5-----6--8---8-6-5---------------
    -----------------7--5-7---7------------------------------
    ---------------------------------------------------------
    ---------------------------------------------------------
    ---------------------------------------------------------
    
    --10--8----8-------------------------------8-10--8----8--
    --------11----11-10-11-10--8-10----8-10-11---------11----
    ---------------------------------------------------------
    ---------------------------------------------------------
    ---------------------------------------------------------
    
  • salu2 
    paz al mundo
    
    es el intro
    
    
    E||---1----------1----0--------------|------------------0---------0-----||
    B||-----------3------------3---------|--3----------3---------1----------||
    G||*-------2--------------------0----|----------3----------------------*||
    D||*--0------------------------------|-------3-------------------------*||
    A||-------------------3--------------|--1---------------3---------------||
    E||----------------------------------|----------------------------------||
    
    
    
    ---1----------1----0--------------|------------------0---------0-----||
    -----------1------------1---------|--3----------3---------1----------||
    *-------2--------------------0----|----------3----------------------*||
    *---------------------------------|-------3-------------------------*||
    -------------------3--------------|--1---------------3---------------||
    ---1------------------------------|----------------------------------||
    
    
    
    --1----------1----0--------------|------------------0
  • e|---1--------1h3--0--------|--------------0-----0-----|     |
    B|---------3----------3-----|--3--------3-----1--------|     |
    G|------2----------------0--|--------3-----------------| x2  |
    D|---0----------------------|-----3--------------------|     |
    A|-----------------3--------|--1-----------3-----------|     |
    E|--------------------------|--------------------------|     |
                                                                 |x2
    e|---1--------1h3--0--------|--------------0-----0-----|     |
    B|---------1----------1-----|--3--------3-----1--------|     |
    G|------2----------------0--|--------3-----------------| x2  |
    D|--------------------------|-----3--------------------|     |
    A|-----------------3--------|--1-----------3-----------|     |
    E|---1----------------------|--------------------------|     |
                                                            ------
    
    e|---1----0--------|
    B|-------------3---|
    G|-----------------| x1
    D|---0-------------|
    A|--------3----1---|
    
  •      Dm                      Cm
    e---------------------------------------------------------
    B--6-----6-5-----------3------3--5---5--------------------
    G------7-----7--------------3------5----------------------
    D----7---------------5----5-------------------------------
    A--5-------------------3-------------3--------------------
    E---------------------------------------------------------
    
    ...después viene esto(el intro se repite otras 4 veces mientras esto se toca):
    e-------5---------------------------5---------10-8-8-8----
    B--6--8---8-6-5----------5-----6--8---8-6-5---------------
    G-----------------7--5-7---7------------------------------
    D---------------------------------------------------------
    A---------------------------------------------------------
    E---------------------------------------------------------
    
    e--10--8----8-------------------------------8-10--8----8--
    B--------11----11-10-11-10--8-10----8-10-11---------11----
    G---------------------------------------------------------
    D---------------------------------------------------------
    
  • HOLASSS ke onda chamakos, hize esta transcripcion, por que no hay ningun ab para bajo d
    esta cancion. Yo se que no esta muy bien pero mas que nada lo hize para que alguien se
    anime a corregirla. un saludo a todos y hay ta' la rola.
    
    
    INTRO
    
    G|----------------------------------------------
    D|--------------------------4---------4---------  X 2
    A|--8--5--5--7--8--5--5--7-----7--5--7---7--5--7
    E|----------------------------------------------
    
    G|-------------
    D|--44---------
    A|------8---5*-
    E|-------------
    
    ENTRA EL VIOLIN (NO HAY BAJO)
    
    AQUI NO C DISTINGUE EL BAJO, PERO TOCO JUNTO CON LOS RASGUEOS D LA GUITARRA
    (STOY KSI SEGURO QUE NO ESTA BIEN ESTO)
    
    ENTRA JUNTO CON LA GUITARRA
    
    PARTE 1
    G|---------------
    D|---------------
    A|---3--55--3--55
    E|---------------
    
    TERMINA DE SONAR EL VIOLIN
    PARTE 2
    G|------------------
    D|-------7--5-------   X 2
    A|--5--7--------7--5
    E|------------------
    
    VERSO
    G|-----------------------------
    D|-----------------------------
  • -Instrumental I-  (tiempo 0:16)
    Fa sol la sol fa mi re
    Do re mi re
    Fa sol la sol fa mi re6 do6 do6 do6
    Re6 do6 sib do6 sib la sib la sol la sib do6
    re6 do6 sib do6 sib la sib do6 re6 mi6 fa6 mi6 re6 do6
    
    -Introducción I- (tiempo 0:37)
    La la sib la fa fa mi re
    La la sib la fa re
    Fa re sol sol sol sol la sol fa mi re
    (do re do re mi re x2 muy rápido)
    
    La la sib la fa fa mi re
    La la sib la fa re
    Fa re sol sol sol sol la sol fa mi re
    (do re do re mi re x3 muy rápido)
    
    -Introducción II- (tiempo 0:57)
    La la la la do6 re6 sol sol sol
    La sol fa mi re (do re do re mi re x3 muy rápido)
    La la la la do6 re6 sol sol sol
    La sol fa mi re
    
    La sol fa mi re do re do re (violin)
    
    -Canto- (tiempo 1:17)
    La la la la la  fa sol fa mi mi
    Sol sol sol sol sol mi fa mi re re
    La la la la la fa sol fa mi mi
    Do do sol sol sol sol la sib la fa
    Do la la la la la la fa sol fa mi mi
    Do do sol sol sol sol la sib la fa
    Do do la la la la la re6 re6 do6
    Do do do sol sol sol  la sib la fa
    
    -Coro-  (tiempo 2:04)
    Re la l
  • +
    ¡Colabora con nosotros!
    Envíanos tu versión de esta canción

Letra de El cantar de la luna oscura
es el pais de la luna oscura
es la habitacion deshabitada
es la mas bella criatura
es la dama descorazonada
apuestos galanes la acortejan
y de aquellos que lo han conseguido
con el paso del tiempo la dejan
y ella llorando escoje el olvido
//de olvido vive y de olvido muere
como planta en jardin olvidado
sabiendo que nadie la quiere
sabiendo que nadie la ha amado//
REQUINTO: Dm-C-Dm-F-C-Dm-
es la inonecencia perdida
es la vejez negada
y unas lagrimas perdidas
maria vive desesperada
ESTRIBILLO...
FINAL.




[El cantar de la luna oscura chords][El cantar de la luna oscura cifra]
© LaCuerda.net · aviso legal · privacidad · es · en · pt · contacto