Acordes de Guitarra » M »Mago De Oz » Fiesta Pagana (Tab)

Fiesta Pagana
Mago De Oz

Letras, Acordes y Tabs para Guitarra, Bajo y Ukulele

  • Bm
    Cuando despiertes un día
       A              E
    y sientas que no puedes más, 
    Bm
    que en el nombre del de arriba
    A               E
    tu vida van a manejar.
    
    D                     A
    Si sientes que el miedo se pega a tu piel 
    Em                     Bm
    por ser comunero y justicia querer
    Bm            A              E         Bm
    si te rindes hermano, por ti nunca pensarás.
    
    
    Intro
    
    Bm
    
  • Bm A Bm A D x2  A  Bm  A
    
    B5                   F#5
    Cuando despiertes un día
       A5              B5
    y sientas que no puedes más,
    B5                      F#5
    que en el nombre del de arriba
    E5               F#5
    tu vida van a manejar.
    
    D5                     A5
    Si sientes que el miedo se pega a tu piel
    A5                     B5
    por ser comunero y justicia querer
    B5            E5             A5         B5
    si te rindes hermano, por ti nunca pensarás.
    
    B5 E5 A5  B5  B5 E5 D5  B5
    B5 E5 A5  B5  E5 A5  B5  A5
    
  • E:  ------17-15-14--17-15-14----17-15-14--17-15-14|
    B:  ---15---------------------15------------------|
    G:  ----------------------------------------------|
    
    E:  ------15-14-12--15-14-12-----15-14-12--15-14-12--|
    B:  --14---------------------14----------------------|
    G:  -------------------------------------------------|
    
          Bm                     Bm                                 
    E:  -----17-15-14--17-15-14------17-15-14--17-15-14|
    B:  --15---------------------15--------------------|
    G:  -----------------------------------------------|
           A                      D
    E:  -------15-14-12--15-14-12-----------------------|
    B:  --14----------------------19-20-19-17-15-14-----|
    G:  ------------------------------------------------|
    
    
          Bm                        Bm
    E:  ----------17-15-14--17-15-14--------17-15-14--17-15-14|
    
  • E:  ------17-15-14--17-15-14----17-15-14--17-15-14|
    B:  ---15---------------------15------------------|
    G:  ----------------------------------------------|
    
    E:  ------15-14-12--15-14-12-----15-14-12--14-15-12--|
    B:  --14---------------------14----------------------|
    G:  -------------------------------------------------|
    
    
    (Las dos guitarras ya a la vez)
    
    Guitarra2
          Bm                     Bm
    (sólo rasgando una vez por cada símbolo, en forma acústica)
    
    Guitarra1                        
    E:  -----17-15-14--17-15-14------17-15-14--17-15-14|
    B:  --15---------------------15--------------------|
    G:  -----------------------------------------------|
           A                      D
    
  •    D---2-3-4-------------------------------------------------------
       A------------------------------------------------2--------------
       E---------------------------------------------------------------
    
          en este 5 hace 2 bentz
    
       e---5(bent)--3--------------------------------------------------
       b--------------5-3---3-5-5(bentz)-5-3(bentz)--------------------
       g------------------4-------------------------4------------------
       D---------------------------------------------------------------
       A---------------------------------------------------------------
       E---------------------------------------------------------------
    
           aki desciende ..
       e---------------------------------------------------------------
       b-------------5-7-8-7-5-7-8-7-5-7-5-----------------------------
       g---------4-7-----------------------7-6-7-----------------------
       D-----4-7---------------------------------------9---------------
       A---7-----------------------------------------------------------
       E---------------------------------------------------------------
    
  • SIm - SIm - LA - RE
    
    Ahora rasguear varias veces: (Guitarra acustica)
    SIm - SIm - LA - LA - SIm - SIm - LA - RE
    
    
    Ahora con distorcion:
    
               SI5                               LA5
    1|-----------------------------------------------------------------|
    2|-----------------------------------------------------------------|
    3|-----------------------------------------------------------------|
    4|-----------------------------------------------------------------|
    5|-9---9---9---9---9---9---9---9---7---7---7---7---7---7---7---7---|
    6|-7-7-7-7-7-7-7-7-7-7-7-7-7-7-7---5-5-5-5-5-5-5-5-5-5-5-5-5-5-5---|
    
               SI5                         LA5            RE5
    1|-----------------------------------------------------------------|
    2|-----------------------------------------------------------------|
    3|-----------------------------------------------------------------|
    
  • YA SE QUE ESTO NO VA AQUI PERO ME SUENA BN SI LO
    TOCAS CON TU DEDO PULGAR
      00:15
    G|-11*~-------------------|
    D|º9~---------------------|  X2
    A|º-----------------------|
    E|------------------------|
    
    G|9~----------------------|
    D|7~----------------------|
    A|------------------------|
    E|------------------------|
    
    G|14*~--------------------|
    D|12*~--------------------|
    A|------------------------|
    E|------------------------|
    
     00:29
    
    G|11--1111--1111--1111--11|
    D|9---9-9---9-9---9-9---9-|  x2
    A|------------------------|
    E|------------------------|
    
    G|9---9-9---9-9---9-9---9-|
    D|7---7-7---7-7---7-7---7-|  X2
    A|------------------------|
    E|------------------------|
    
    G|11--1111--1111--1111--11|
    D|9---9-9---9-9---9-9---9-|  x2
    A|------------------------|
    E|------------------------|
    
    G|9---9-9---9-9---9-9---9-||14---14-14---14-14---14-14---9-|
    D|7---7-7---7-7---7-7---7-||12---12-12---12-12---12-12---7-|
    A|------------------------||-------------------------------|
    E|------------------------||---
  • NOTA:
    -las letras minúsculas son graves
    -LAS LETRAS MAYÚSCULAS SON AGUDAS
    -los subguiones ( _ ) alargan las notas, es decir, dura un poco más.
    
    ----------------------------------
    
    
    INTRO (lento).- (I1)
    
    RE_LA-SOL-FA#-LA-SOL-FA#
    RE_LA-SOL-FA#-LA-SOL-FA#
    DO#_SOL-FA#-MI-SOL-FA#-MI
    DO#_SOL-FA#-MI-FA#-SOL-MI
    RE_LA-SOL-FA#-LA-SOL-FA#
    RE_LA-SOL-FA#-LA-SOL-FA#
    DO#_SOL-FA#-MI-SOL-FA#-MI
    FA#_FA#-SOL-FA#-MI-RE-DO#
    
    ENTRAN LAS GUITARRA Y LA BATERIA
    
    REPETIDO.- (I2)
    
    RE-RE-RE-RE-LA-SOL-FA#-LA-SOL-FA#
    RE-RE-RE-RE-LA-SOL-FA#-LA-SOL-FA#
    DO#-DO#-DO#-DO#-SOL-FA#-MI-SOL-FA#-MI
    DO#-DO#-DO#-DO#-SOL-FA#-MI-FA#-SOL-MI
    RE-RE-RE-RE-LA-SOL-FA#-LA-SOL-FA#
    RE-RE-RE-RE-LA-SOL-FA#-LA-SOL-FA#
    DO#-DO#-DO#-DO#-SOL-FA#-MI-SOL-FA#-MI
    FA#-FA#-FA#-FA#-FA#-SOL-FA#-MI-RE-DO#
    si-DO#-RE-MI-RE-DO#
    si-DO#-RE-DO#-si-la-si-la_
    
    Estrofa 1.- (E1)
    
    Cuando despiertes un día
    si-si-si-si-FA#-FA#-FA#-FA#
    y sientas que no puedes más,
    MI-MI-FA#-SOL-FA#-RE-si
    que en el nombre del de arriba
    si-si-si-si-FA#-FA#-FA#-FA#
    tu vida van a man
  • Aqui les va, aunque está decente la mayoría,
    pues de una vez les agrego el coro no?
    pa que vean lo que es no tener nada que hacer.
    Hay algunas cosillas que le pueden corregir,
    porque nomas es la pauta
    y me da flojera escribir aqui. Un saludo para los
    del F, que son bien transas, y para Martuchis la pinos.
    
    
    NOTA:
    -LAS LETRAS MAYÚSCULAS SON GRAVES
    -LAS LETRAS MINÚSCULAS SON AGUDAS
    
    Una escala de Mi al SOL
    
    LENTO:
    
    SI-LA-SOL-SI-LA-SOL-MI
    SI-LA-SOL-SI-LA-SOL-RE
    LA-SOL-FA-LA-SOL-FA-RE
    LA-SOL-FA-SOL-LA-SOL-MI
    
    SI-LA-SOL-SI-LA-SOL-MI
    SI-LA-SOL-SI-LA-SOL-RE
    LA-SOL-FA-LA-SOL-FA-SOL
    SOL—LA-SOL-FA-MI-RE-MI-MI-MI-MI
    
    SI-LA-SOL-SI-LA-SOL-MI-MI-MI-MI
    SI-LA-SOL-SI-LA-SOL-RE-RE-RE-RE
    LA-SOL-FA-LA-SOL-FA-RE-RE-RE-RE
    LA-SOL-FA-SOL-LA-MI-MI-MI-MI-MI
    
    SI-LA-SOL-SI-LA-SOL-MI-MI-MI-MI
    SI-LA-SOL-SI-LA-SOL-RE-RE-RE-RE
    LA-SOL-FA-LA-SOL-FA-SOL-SOL-SOL
    SOL-FA-SOL-LA-MI-MI-MI-MI-MI
    
    ENTRAN LAS GUITARRA Y LA BATERIA
    
    REPIDO:
    SI-LA-SOL-SI-LA-SOL-MI-MI-MI-MI
    SI-LA-SOL-SI-LA-SOL-RE-RE-RE-RE
    LA-SOL-FA-LA-SOL-FA-
  • +
    ¡Colabora con nosotros!
    Envíanos tu versión de esta canción
  • Tutorial
    HD
    Como tocar "Fiesta Pagana" de Mago de Oz - Tutorial Guitarra (HD)
    10:34

Letra de Fiesta Pagana
Cuando despiertes un día
y sientas que no puedes más,
que en el nombre del de arriba
tu vida van a manejar.
Si sientes que el miedo se pega a tu piel
por ser comunero y justicia querer
si te rindes hermano, por ti nunca pensarás.
Cuando vayan a pedirte
los diezmos a fin de mes
y la Santa Inquisición
te 'invite' a confesar,
entonces amigo tú alza la voz,
di que nunca pediste opinión
y si es verdad que existe un Dios
que trabaje de sol a sol
Ponte en pie
alza el puño y ven
a la fiesta pagana
en la hoguera hay de beber.
De la misma condición
no es el pueblo ni un señor,
ellos tienen el clero
y nosotros nuestro sudor.
Si no hay pan para los tuyos
y ves muy gordo al abad,
si su virgen viste de oro,
desnúdala.
Cómo van a silenciar
al jilguero o al canario
si no hay cárcel ni tumba
para el canto libertario.
Ponte en pie
alza el puño y ven
a la fiesta pagana
en la hoguera hay de beber.
De la misma condición
no es el pueblo ni un señor,
ellos tienen el clero
y nosotros nuestro sudor.
y despues se oye la flauta acompañada de estos acordes D A Em Bm A E Bm
Estribillo 2 veces, la ultima con... ¡¡CABRONES!!
Acaba con la intro
****************************
Espero que os guste, y que si la dais mejorado, que me digais las
variaciones, os lo agrdeceria.Que disfruteis de Mago de Oz.
Dedicada a Sonia (Pucelana) y a todos los seguidores de Mago de Oz
****************************




[Fiesta Pagana chords][Fiesta Pagana cifra]
© LaCuerda.net · aviso legal · privacidad · es · en · pt · contacto