Acordes de Guitarra » M »Mago De Oz » La rosa de los vientos (Tab)

La rosa de los vientos
Mago De Oz

  • Letra y Acordes
    |---------------------------|
    |---------------------------| Esta parte se puede ir 
    |---------------------------| repitiendo puesto que 
    |---------------------------| Forma la mayor parte de 
    |---3---0--3---0--------0---| la canción como bajo
    |-----3------3----1--3------|
    
    
       DO           SOL 
    Si siembras una ilusión
         LAm           MIm 
    y la riegas con tu amor
    FA        SOL       DO  SOL
    y el agua de la constancia
    DO                SOL
    Brotará en ti una flor
         LAm           MIm 
    y su aroma y su calor
    FA        SOL       DO        SOL
    te arroparán cuando algo vaya mal
    
  • Letra y Acordes
    C G Am (2x)
    F G Am (2x)
    
            C           G
    Si siembras una ilusión
          Am            Em
    Y la riegas con tu amor
     F        G          Am G
    Y el agua de la constancia
         C             G
    Brotará en ti una flor
          Am          Em
    Y su aroma y su calor
    F         G            C       G
    Te arroparán cuando algo vaya mal
    
            C         G
    Si siembras un ideal
           Am           Em
    En la tierra del quizás
    
  • Tablatura
    1.-D#       3.-C#
    2.-A#       4.-G#
    3.-F#       5.-D#
    
    Recuerden que la primer cuerda es la mas delgada y la sexta la mas gruesa...
    
    Intro:
    
    D#|-13-12-10-10-------------|
    A#|-------------13-11-10----|
    F#|----------------------12-|
    
    D#|-13-12-10-10-12-13-15-13-12-|
    
    D#|-13-12-10-10-------------|
    A#|-------------13-11-10----|
    F#|----------------------12-|
    
    D#|-13-15-17-15-------|
    A#|-------------17-13-|
    
  • Tablatura
    Arnulfo Rolando Blandon Torrez
    arnulfowm@yahoo.es
    
    Arriba Cabroneeeeeeees! eeeees!
    
    Violín 0:00
    
    E----10-12--10--------------------10-12--10--------------------
    B-13-----------13-12-10----10--13-----------13-12-10----10-----
    G-----------------------12---------------------------12--------
    D--------------------------------------------------------------
    A--------------------------------------------------------------
    E--------------------------------------------------------------
                                                                      x2
    E--------------------------------------------------------------
    B-10--------10-13-12-10-------10--------10-13-12-10----10------
    G----12-10--------------12-9-----12-10--------------12---------
    D--------------------------------------------------------------
    A--------------------------------------------------------------
    E--------------------------------------------------------------
    
    Violín 1:44
    
    E-12-10---------------------12-10-----10-12-13-15-
  • Tablatura
    que onda, bueno aqui les dejo este tab, ojala les guste. saludos
    a todos mis amigos de guanatos. del juanito.
    
    Intro Guitarra
    
    
    
    
    e-----------------------------------------------------------
    b--5-4----------------5-4------4-5-7-5-4---5-4--------------
    g------6--6-4-------------6--6-----------------6--6-4-------
    d-------------7-6-4-----------------------------------7-6-4-
    a-----------------------------------------------------------
    E-----------------------------------------------------------
    
    
    e-----4-------
    b-5-7---7-5-4-
    g-------------
    d-------------
    a-------------
    E-------------
    
    
    Ahora con la bateria.
    
    e-----4--------------------4-------------
    b-5-7---7-5-4----------5-7---7-5-4-5-4-5-
    g-------------6-4-6----------------------
    d----------------------------------------
    a----------------------------------------
    E----------------------------------------
    
    e------------------------------------------
    b---------5-4--------------------5-4-------
    g-6-4---6-----6-4-6------6-4---6-----6-4-6-
    d-
  • Tablatura
    Eso es! Muy grande! DAHJ!...Aqui esta el solo de la Rosa de los Vientos version metal
    Jorge Salan vale mucho la pena, esta bien pesado y mis respetos para el.
    
    E|--7p4h5h7p5p4-|-9p5h7h9p7p5-|-11p7h9h11p9p7-|-12p9h11h12p11p9-|-14p11h12h14p12p11--
    B|--------------|-------------|---------------|-----------------|--------------------
    D|--------------|-------------|---------------|-----------------|--------------------
    G|--------------|-------------|---------------|-----------------|--------------------
    A|--------------|-------------|---------------|-----------------|--------------------
    E|--------------|-------------|---------------|-----------------|--------------------
    
    --16p12h14h16p14p12-|-17p14h16h17p16p14--|-19p16h17h19p17p16-19b21---19--------------
    --------------------|--------------------|------------------------------19b21b19-17--
    --------------------|--------------------|-------------------------------------------
    --------------------|--------------------|----------
  • Tab p/Bajo
    NOTA:
    
    Espero y te ayude en algo esta tab.
    Si necesitas una tab en especial, escríbeme o visita...
    
    *******************************************
    * http://www.myspace.com/alejandrolauyola *
    *******************************************
    
    - Revisa la afinación de esta canción en especial
    - Pon atención a las instrucciones que están al final
    - CALIFICA SOLO SI LEÍSTE "EL MANUAL"-
    
                                         |----3----|
          H.           E  E     H        Q    Q    Q
    F#||---------------------|--------------------------|
    C#||---------------------|--------------------------|
    G#||---------------8--7--|--5--------5--------------|
    D#||---------------------|----------------8----6----|
    
    
                                      |----3----|
      H        Q    E  E     H        Q    Q    Q
    ----------------------|--------------------------|
    ----------------------|--------------------------|
    ----------------8--7--|--5--------5----7----8----|
    --5--------3----------|--------------------------|
    
    
       
  • Piano (Teclados)
    Aqui teneis una bonitisima cancion
    de mago de oz
    q lo disfruten
    
    
    Intro:
    do re mi re do si la sol la
    do re mi re do si la sol la   (bis)
    la sol fa la do si la sol mi
    la sol fa la do si la sol la
    
    
    Si siembras una ilusion...
    Do re  mi mi fa mi re
    (do) si do do re mi si
    la si do si la sol mi re    (bis)
    Do re mi mi fa mi re
    (do) si do do re mi si
    la si do si (do re mi re do re / si si do)
    
    
    Y q mi luz...
    La si do mi si mi la sol
    la si do mi la sol sol la
    la si do do do do si sol
    mi la la la la sol mi
    re do re mi re do si do
    
    Y si te sientes...
    La si do mi si mi la sol
    la si do mi la sol sol la
    la si do do do do si sol
    mi la la la la sol mi
    re do re la sol la si do
    
    Despues de eso:
    do si la la sol fa mi re
    do si la la si do re
    do si la la sol fa mi re
    do re mi re do si do
    
    Si siembras...
    
    Y q mi luz...x3
    
    do re mi re do si do x2
    
    
    cualquier duda o lo q sea
    xabier_agirrezabala@hotmail.com
  • Piano (Teclados)
    Hola, aqui esta la version en piano de la rosa de los vientos
    para cualquier cosa a mi mail: Rodolfo_X09z@hotmail.com
    
    I| ◄-- Mano Izquierda
    -|------------------
    D| ◄-- Mano Derecha
    
    
    ►Piano:
    
    
    (0:01)Intro (dos veces)
    
    
    I|        G2 D2 A2       G2  D2 A2  C2 D2 A2
    -|--------------------------------------------
    D|  C4  D4  E4  D4  C4  D4  C4  B3  C4
    
    
    
    I|        G2 D2 A2       G2  D2 A2  C2 D2 A2
    -|-----------------------------------------
    D|  C4  D4  E4  D4  C4  D4  C4  B3  C4
    
    
    
    I|      G2 D2 A2    G2  D2 A2   C2 D2 A2
    -|---------------------------------------
    D|   A3  G3  F3  A3  C4  B3  A3  G3  A3
    
    
    
    
    I|   G2 D2 A2    G2  D2 A2   C2 D2 A2
     -|-------------------------------------
    D|  A3  G3  F3  A3  C4  B3  A3  G3  A3
    
    
    (0:34) Verso (dos veces lo mismo)
    
    
    I|    G2 D2 A2 G2  D2 A2 C2 D2 A2
     -|---------------------------------
    D|  C4  D4  E4  E4  F4  E4  D4
    
    
    
    I|  G2 D2 A2  G2  D2 A2  C2 D2 A2
    -|--------------------------------
    D| C4  B3  C4  C4  D4  C4  B3
    
    
    
    I|   G2
  • +
    ¡Colabora con nosotros!
    Envíanos tu versión de esta canción

Letra de La rosa de los vientos
Si siembras una ilusión
y la riegas con tu amor
y el agua de la constancia
Brotará en ti una flor
y su aroma y su calor
te arroparán cuando algo vaya mal
Si siembras un ideal
en la tierra del quizás
y lo abonas con la envidia
será difícil arrancar
la maldad
de tu alma si echó raíz
(ESTRIBILLO)
Y que mi luz te acompañe
pues la vida es un jardín
donde lo bueno y lo malo
se confunde y es humano
no siempre saber elegir
Y si te sientes perdido
con tus ojos no has de ver
hazlo con los de tu alma
y encontrarás la calma
tu rosa de los vientos seré
(piano y violín)
Si siembras una amistad
con mimo plántala
y abónala con paciencia
pódala con la verdad
y transplántala con fe
pues necesita tiempo y crecer
Si te embriagas de pasión
y no enfrías tu corazón
tartamudearán tus sentidos y quizás
hablará sólo el calor y no la razón
es sabio contar hasta diez
(ESRIBILLO)
Y que mi luz te acompañe
pues la vida es un jardín
donde lo bueno y lo malo
se confunde y es humano
no siempre saber elegir
Y si te sientes perdido
con tus ojos no has de ver
hazlo con los de tu alma
y encontrarás la calma
tu rosa de los vientos seré
Pues aquí la tenéis, unas cosillas más:
* Si tocáis estos acordes haciendo una arpeo
queda mucho más bonita.
* En la canción que pasé de mago: la costa del silencio.
en la última parte escribí unos acordes de 'Re', pues no es
un Re mayor sino un Re menor como el resto de la canción.
*Ah, por cierto, disculpas ya que en la canción “La costa
del silencio” me puse como si fuera yo el compositor.
*Y ya por ultimo le dedico esta canción a Cristina C.
(wapa :-*)



© LaCuerda.net · aviso legal · privacidad · contacto