Acordes de Guitarra » M »Mago De Oz » Pensando en ti (Tab)

Pensando en ti
Mago De Oz

Letras, Acordes y Tabs para Guitarra, Bajo y Ukulele

  •          C   G/B  Am
        hay ve..ces   que...
        G          Dm             Am
        mi alma baila tangos con la soledad
           C       G/B          Am
        y necesito de tabla tu amor
        G             Dm         Am
        para asirme a ella en mi tempestad
    D/F# G         Am
        pensando en ti
    D/F#        G           Am
        paso el dia pensando en ti
           C   G/B  Am
        ense...ña...me...
        G              Dm
        a escuchar tus labios
         Am
         a leer el sol
         C     G/B  Am
         lle...va...me
    
  • C/G  C    C/G    Am
         hay veces que
    
         G              Dm            Am
         mi alma baila tango con la soledad
    
       C         C/G         Am
       y necesito de tabla tu amor
    
      G            Dm            Am
      para asirme a ella en mi tempestad.
    
    
       G/B      G           Am
                pensando en ti
    
      G/B       G              Am
      paso el dia pensando en ti.
    
    
    
  • C Cmaj7 Cadd9 C Asus2 Asus4 Am Asus2
    Cadd9 C Cmaj7 Cadd9 Am Asus2 Asus4 Am G/B
    
            C G/B Am
        Hay veces que
           G          Dm            Am      G/B
        mi alma baila tangos con la soledad
          C        G/B         Am
        y necesito de tabla tu amor
        G             Dm         Am
        para asirme a ella en mi tempestad
    
        D/F#        G           Am Am/G
                    Pensando en ti
        D/F#        G           Am G/B
        paso el día pensando en ti
    
          C G/B Am
        Enséñame
        G              Dm         Am        G/B
    
  • Cmaj7      x32000
    Cadd9      x32030
    Asus2      x02200
    Asus4      x02230
    G/B        x20033
    Dsus2/F#   200230
    Dm         xx0231
    Dm7        xx0211
    
    Intro:
       C                 Cmaj7             Cadd9             C
       +   +   +   +     +   +   +   +     +   +   +   +     +   +   +   +
    e:-----------------|-----------------|-----------------|-----------------|
    B:-1---------1-----|-0---------0-----|-3---------0-----|-1---------1-----|
    G:-------0-------0-|-------0-------0-|-------0-------0-|-------0-------0-|
    D:-----2-------2---|-----2-------2---|-----2-------2---|-----2-------2---|
    A:-3-------3-------|-3-------3-------|-3-------3-------|-3-------3-------|
    E:-----------------|-----------------|-----------------|-----------------|
    
       Asus2             Asus4             Am                Asus2
    
  •     C
    E|------------------------------------------------------------------
    B|-----1----------1----------0----------0----------3----------3-----
    G|-------0----------0----------0----------0----------0----------0---
    D|---2-----2----2-----2----2-----2----2-----2----2-----2----2-----2-
    A|-3----------3----------3----------3----------3----------3---------
    E|------------------------------------------------------------------
    
        Am
    E|------------------------------------------------------------------
    B|-----1----------1----------0----------0----------3----------3-----
    G|-------2----------2----------2----------2----------2----------2---
    D|---2-----2----2-----2----2-----2----2-----2----2-----2----2-----2-
    A|-0----------0----------0----------0----------0-----------0--------
    E|------------------------------------------------------------------
    
              Hay veces que
    E|------------------------------------------------------------------
    B|-----1----------1----------0----------0----------3----------3-----
    G|-------0----------0----------0----------0----------0----------0---
    
  •      C           Cmaj7        C/D       C
    e|-----------|------------|------------|------------|  |
    B|-1------1--|-0-------0--|-3-------3--|-1-------1--|  |
    G|-----0---0-|-----0----0-|-----0----0-|-----0----0-|  |
    D|----2------|----2-------|----2-------|----2-------|  |
    A|-3---------|-3----------|-3----------|-3----------|  |
    E|-----------|------------|------------|------------|  |
         Am°         Am°°         Am         Am°         ||
    e|-----------|------------|------------|------------|  |
    B|-0------0--|-3-------3--|-1-------1--|-0-------0--|  |
    G|-----2---2-|-----2----2-|-----2----2-|-----2----2-|  |
    D|----2------|----2-------|----2-------|----2-------|  |
    A|-0---------|-0----------|-0----------|-0----------|  |
    E|-----------|------------|------------|------------|  |
          C/D         C          Cmaj7                 ||
         uuuu……      uuuu……      uuuuu………     uuuu       ||
    e|-----------|------------|------------|------------|  |
    B|-3------3--|-1-------1--|-0-------0--|-3-------3--|  |
    G|-----0---0-|-----0----0-|-----0----0-|-----0----0-|  |
    D|----2------|----2-------|----2-------|----2-------|  |
    
  • (2)    DO
    E.-----------------------------------------------------------
    B.--1-----1--------0-----0--------3-----3--------1-----1-----
    G.----0-----0--------0-----0--------0-----0--------0-----0---
    D.------2-----2--------2-----2--------2-----2--------2-----2-
    A.--3--------------3--------------3--------------3-----------
    E.-----------------------------------------------------------
           LA
     ----------------------------------------------/
     --1-----1--------0-----0--------3-----3-------/ TODO ESTO SOLO SE REPITE 2 VECES ANTES DE QUE
     ----2-----2--------2-----2--------2-----2-----/ EMPIECE A CANTAR JOSE. EL RESTO DE LA CANCION.
     ------2-----2--------2-----2--------2-----2---/ SOLO UNA.
     --0--------------0--------------0-------------/
     ----------------------------------------------/
    
    (1)
    E.----------
    B.--1-1-----
    G.----------
    D.---------- TERMINANDO LAS 2 VECES SIGUE ESTO
    
  •    C                 Cmaj7             Cadd9             C
    
    e:-----------------|-----------------|-----------------|-----------------|
    B:-1---------1-----|-0---------0-----|-3---------0-----|-1---------1-----|
    G:-------0-------0-|-------0-------0-|-------0-------0-|-------0-------0-|
    D:-----2-------2---|-----2-------2---|-----2-------2---|-----2-------2---|
    A:-3-------3-------|-3-------3-------|-3-------3-------|-3-------3-------|
    E:-----------------|-----------------|-----------------|-----------------|
    
       Asus2             Asus4             Am                Asus2
    
    e:-----------------|-----------------|-----------------|-----------------|
    B:-0---------0-----|-3---------3-----|-1---------1-----|-0---------0-----|
    G:-------2-------2-|-------2-------2-|-------2-------2-|-------2-------2-|
    D:-----2-------2---|-----2-------2---|-----2-------2---|-----2-------2---|
    A:-0-------0-------|-0-------0-------|-0-------0-------|-0-------0-------|
    E:-----------------|-----------------|-----------------|-----------------|
    
       Cadd9             C                 Cmaj7             Cadd9
    
    
  • Esta transcripción es tanto para flauta como para teclado,
    las notas  están en el sistema latino y los acordes en el sistema americano,
    las notas en mayúscula son las graves y las notas en minúscula son las agudas.
    
    Introduccion
    
    Am
    
    LA LA SOL LA do re
    mi mi re do SI
    LA LA SOL LA do
    MI MI RE MI SOL
    
    C
    LA LA SOL LA do re
    mi mi re mi sol
    Dm
    la la sol la
    mi mi re do SI
    
    Am
    LA LA SOL LA do re
    mi mi re do SI
    LA LA SOL LA do
    MI MI RE MI SOL
    
    C
    LA LA SOL LA do re
    mi mi re do SI
    LA SOL RE/MI
    
    Uh uh uh uh uh
    
    C
    Hay ve...ces que
    G             Dm            Am
    mi alma baila tangos con la soledad
    C
    y necesito de tabla tu amor
    G              Dm         Am
    para hacerme a ella en mi tempestad
    
    
    Pensando en ti
    paso el dia pensando en ti
    
    C
    Enseñame
    G              Dm         Am
    a escuchar tus labios a leer el sol
    C
    llevame
    G           Dm                 Am
    a donde los sueños fabrican tu voz
    
    
    Pensando en ti                 G
    duermo el odio pensando en ti
    Dm    Am
    Ah ah ah
    
    Solo
    
    mi re do SI do re
  • +
    ¡Colabora con nosotros!
    Envíanos tu versión de esta canción

Letra de Pensando en ti
hay ve..ces que...
mi alma baila tangos con la soledad
y necesito de tabla tu amor
para asirme a ella en mi tempestad
pensando en ti
paso el dia pensando en ti
ense...ña...me...
a escuchar tus labios
a leer el sol
lle...va...me
a donde los sueños fabrican tu voz
pensando en ti
duermo el odio pensando en ti
donde estas?
tengo miedo ayudame a caminar
pues solo nunca yo podre encontrar
la forma de ser libre
quiero despertar
pensando en ti
acuno mi alma pensando en ti
paso el dia pensando en ti
paso el dia pensando en ti...




[Pensando en ti chords][Pensando en ti cifra]
© LaCuerda.net · aviso legal · privacidad · es · en · pt · contacto