Acordes de Guitarra » M »Mago De Oz » Hasta que el cuerpo aguante (Tab)

Hasta que el cuerpo aguante
Mago De Oz

Letras, Acordes y Tabs para Guitarra, Bajo y Ukulele

  • Intro: Bm   A 
    
    Bm
    Puedes arrancarme el corazon del pecho
    A
    y convertir el murmullo tenue en mi voz
    Bm                               A
    reducir toda una vida solo a un renglon
    
    
    Bm
    Puedes sobre mi dar opinion siesgada
    A
    criticar mi oficio que no es porvenir
    Bm                                A
    que alimento la hoguera de la imaginacion
    
    
    Bm
    Puede que la lluvia caiga sobre el cielo
    
  • e|------------------5--------------------------------------------------------|
    B|---5---5--7--8-------8--7--5--3--------------------------------------------|
    G|---------------------------------------------------------------------------|
    D|---------------------------------------------------------------------------|
    A|---------------------------------------------------------------------------|
    E|---------------------------------------------------------------------------|
    
    e|------------------5--------------------------------------------------------|
    B|---5---5--7--8--------7^--5------------------------------------------------|
    G|---------------------------------------------------------------------------|
    D|---------------------------------------------------------------------------|
    A|---------------------------------------------------------------------------|
    E|---------------------------------------------------------------------------|
    
    e|----------------5--3--5--7----8--7--5-----5--------------------------------|
    B|---5---5--7--8-------------------------8-----8--7--5--3--5--5--------------|
    G|---------------------------------------------------------------------------|
    D|---------------------------------------------------------------------------|
    A|---------------------------------------------------------------------------|
    E|---------------------------------------------------------------------------|
    
  • e|------------------9-------------------------------------------|
    B|---9---9--11--12-------11--9--11--9---------------------------|
    G|--------------------------------------------------------------|
    D|--------------------------------------------------------------|
    A|--------------------------------------------------------------|
    E|--------------------------------------------------------------|
    
    e|------------------9------------------------------------------|
    B|---9---9--11--12--------12p11h12p11h12--9--------------------|
    G|-------------------------------------------------------------|
    D|-------------------------------------------------------------|
    A|-------------------------------------------------------------|
    E|-------------------------------------------------------------|
    
    e|-----------------9--9--11----12-11-9-8--11-10-8-7-------------|
    B|---9---9--11--12--12-----------------------------12-10-12-----|
    G|--------------------------------------------------------------|
    D|--------------------------------------------------------------|
    A|--------------------------------------------------------------|
    E|--------------------------------------------------------------|
    
  • ----------------------------------------|------------------9-8-7----<7>~--|---
    ----------------------------------------|------------------------10-------|---
    
    
    ----------------------------------------| h – Hammer on       T - Tapping
    ----------------------------------------| p – Pull-off       () – Ghost note
    ------------7-9-<9b11------(11)>9p7-----| ~ - vibrato
    --------7-9-------------------------9\--| \ - Slide down
    --5-7-9---------------------------------| P.M – Palm Mute
    ----------------------------------------| <> - Artificial Harmonic
    
    
    El cuarto riff, es una improvisación mia de esa parte del solo en escala
    de blues, es la unica parte del solo que no pude sacar, puedes hacer la
    tuya tambien haciendo combinaciones de hammers y pull-offs entre cuerdas.
    
    Escala de Blues
    E|--------------------------5-8--|
    B|----------------------5-8------|
    G|----------------5-7-8----------|
    
  • Intro de Violín
    
    e|-------------------12------------------------------------------12----------|
    B|--12---12--14--15------14------12------------12---12--14--15------14~--12--|
    G|---------------------------14------11--------------------------------------|
    D|---------------------------------------------------------------------------|
    A|---------------------------------------------------------------------------|
    E|---------------------------------------------------------------------------|
                                                                                    <--------- X2
    e|------------------12------12--14----15--14--12------14---------------------|
    B|--12--12--14--15------14------------------------15-----15--14------12--12--|
    G|----------------------------------------------------------------14---------|
    D|---------------------------------------------------------------------------|
    A|---------------------------------------------------------------------------|
    E|---
  • He aquí el tab 99.99% correcto de tan esperada canción (¿cuando será el dia en
    que haga uno 100% correcto?). Pues bien cabron, cualquier consulata, dirigete a mi mail.
    Sigan comiendo, bebiendo y follando CABRONES¡¡¡
    
    G||------------------------|-----------------------|------------------------|
    D||------------------------|-----------------------|------------------------|
    A||------------------------|-----------------------|------------------------|
    E||--7----7--7--7----7--7--|--7----7--7--7----5----|--7----7--7--7----7--7--|
    
    
    
    ----------------------|------------------------|-----------------------|
    ----------------------|------------------------|-----------------------|
    ------------7----7/---|------------------------|-----------------------|
    --5----5/-------------|--7----7--7--7----7--7--|--7----7--7--7----7----|
    
    
    
    --------------------------|---------------------|------------------------|
    --4-----------------------|---------------------|-----------------------
  • hola!!!
    esto lo e echo a mi manera,
    por lo q ay cosas que igual no os
    cuadran, pero probad, e igual os sonara
    creo que esto es pa flauta, pro da igual
    
    intro:
    si si do# re mi do#la si fa#
    si si do# re mi do# si
    si si do # re mi re mi fa#
    
    estrofa 1:
    fa# fa# fa# fa# fa# fa# fa# fa # fa#
              (muy rapido)
    sol fa# mi
    mi mi mi mi mi mi mi mi mi
          (muy rapido)
    fa# mi
    fa# fa# fa# fa# fa# fa# fa# fa # fa#
              (muy rapido)
    sol fa# sol mi (despues de repetir la
    estrofa 1):mi mi mi re do# si
    
    estrofa 2 : (se entra con el si de arriba)
    si si si do# do# re re do# si si
    si (re) fa# fa# fa# fa#
    mi mi fa# sol fa#
    fa# sol la si la mi re si
    si mi mi mi re mi mi mi do# la
    
    estructura:
    intro
    estrofa 1
    estrofa 2
    estrofa 1
    estrofa 2
    intro (mas algo q no e consegido sacar)
    estribillo (las veces que quieras)
    
    esto es todo amig@s
    asta otra
  • +
    ¡Colabora con nosotros!
    Envíanos tu versión de esta canción
  • Tutorial
    HD
    Como tocar Hasta que el cuerpo aguante de MAGO DE OZ en guitarra acustica
    2:52
  • Tutorial
    HD
    Como tocar "Hasta que el cuerpo aguante" de Mago de Oz - Tutorial Guitarra Acústica
    11:42

Letra de Hasta que el cuerpo aguante
Puedes arrancarme el corazon del pecho
y convertir el murmullo tenue en mi voz
reducir toda una vida solo a un renglon
Puedes sobre mi dar opinion siesgada
criticar mi oficio que no es porvenir
que alimento la hoguera de la imaginacion
Puede que la lluvia caiga sobre el cielo
que el mar confundido vaya a un rio a morir
que en la noche cante el gallo y la mañana
que con las animas se fuera a divertir
Vivo con la pasion a flor de piel
entre estrofas encontraras mi hogar
ella espera a que regrese
y mientras yo guardo sus besos y su voz

en mi corazon
Busco en el camino todas las respuestas
y me he dado cuenta que estan en mi
comunicador de sueños quiero ser
Musico soy, musico sere
ponte un par de sensaciones a tu piel
fabrico recuerdos que atas con nostalgia a mi cancion
Jamas podre dejarla
mi vida es una cancion
soy escultor del alma
soy musico y amo en clave de sol
hasta que aguante mi voz...
Acordes de intro con la variante de D A
Estamos locos de atar
somos trobadores que en tu ciudad
damos pinceladas de color
a tu gris realidad
Somos mitad caballeros
mitad bohemios y embusteros
no somos lo que un padre quiere
para su hijita bebe
Estamos locos de atar
somos trobadores que en tu ciudad
damos pinceladas de color
a tu gris realidad
Somos mitad caballeros
mitad bohemios y embusteros
no somos lo que un padre quiere
para su hijita bebe
Hasta que el cuerpo aguante
hasta que quiera mi voz
hasta que el cuerpo aguante
seguire viviendo tal como soy (2 veces)
*****************************
Dedicado Sonia,Aldara y Martin
*****************************




[Hasta que el cuerpo aguante chords][Hasta que el cuerpo aguante cifra]
© LaCuerda.net · aviso legal · privacidad · es · en · pt · contacto