Tab p/Bajo de Hombres G: Visite Nuestro Bar
Daniel Mezquita, David Summers
La Cagaste...Burt Lancaster [1985]
bueno es lo del intro pero se oye suave aqui va:

e-------------------------
B-------------------------
G-------------------------
D-----------------------3-
A--/1-------1-1h3-3-1-----
E-----3-1-3-----------1---



e--------------------------
B--------------------------
G--------------------------
D------------------------3-
A--0h1-------1-1h3-3-1-----
E------3-1-3-----------1---



bueno aqui esta el bajeo del intro que es lo mas 
principal por que se repite casi toda la cancion.
si tienen dudas o aclaraciones escribanme a:
has.ramiro@atame.org

gracias
Este fichero es trabajo propio de su transcriptor y representa su interpretación personal de la canción. El material contenido en esta página es
para exclusivo uso privado, por lo que se prohibe su reproducción o retransmisión, así como su uso para fines comerciales.
© LaCuerda.net · aviso legal · privacidad · contacto