Acordes de Guitarra » H »Hombres G » Te vi (Tab)
  • Letra y Acordes
          INTRO: E - C#m - F#m - B
    
                         E
          De pronto te vi
                         C#m
          y pensé que nunca más,
                            F#m       
          iba a quererme despertar  
                    B
          lejos de ti.
    
                           E
          Y supe que por ti
                               C#m      
          iba a robarle el cielo al mar
                               F#m
          y a las estrellas un collar 
                 B7
          para ti.
    
    
  • Tablatura
       E                           C#m                         A    
    e|---------------------------|---------------------------|---------------------------|
    B|------0-----0-----0-----0--|------0-----0-----0-----0--|------0-----0-----0-----0--|
    G|---------------------------|---------------------------|---------------------------|
    D|-1/2-----2-----2-----2-----|-1/2-----2-----2-----2-----|-2/4-----4-----4-----4-----| ==>
    A|---------------------------|---------------------------|---------------------------|
    E|---------------------------|---------------------------|---------------------------|
       E
    e|---------------------------|
    B|------0-----0------0-----0-|
    G|---------------------------|
    D|-1/2-----2-----1/2-----2---|
    A|---------------------------|
    E|---------------------------|
    
         E
          De pronto te vi
    
                         C#m
          y pensé que nunca más,
    
  • +
    ¡Colabora con nosotros!
    Envíanos tu versión de esta canción
  • Tutorial
    como tocar TE VI VENIR,
    3:17
  • Tutorial
    como tocar te vi venir de sin bandera
    3:54

Letra de Te vi
De pronto te vi
y pensé que nunca más,
iba a quererme despertar
lejos de ti.
Y supe que por ti
iba a robarle el cielo al mar
y a las estrellas un collar
para ti.
Y yo que siempre presumí
de que nadie me iba a atar
y que siempre me quise a mi
sobre todo lo demás.
De pronto te vi
y tu me miraste a mi
cambiaste mi vida justo ahí
sólo porque te vi.
Y ahora entiendo por qué el sol
se ha quedado en mi jardín
porque el aire solo huele a ti.
Y yo que siempre presumí
de mi amada soledad
y que siempre quise huir
y no perder mi libertad.
De pronto te vi
y tu me miraste a mi
cambiaste mi vida justo ahí
sólo porque te vi.
Cambiaste mi vida...
porque te vi.



© LaCuerda.net · aviso legal · privacidad · contacto
DINAMICO