Acordes de Guitarra » H »Hombres G » Visite Nuestro Bar (Tab)

Visite Nuestro Bar
Hombres G

Letras, Acordes y Tabs para Guitarra, Bajo y Ukulele

  • G
    Yo no se, 
          Am      D         G          Am D
    si estas muy pedo o lo vas a estar.
    G
    Solo se
           Am     D       G   Am D
    que estas en nuestro bar.
    
    
    G
    Hoy es viernes
          Am    D     G           Am       D      
    las chicas mas bonitas te vas a encontrar.
           G
    No lo pienses mas
       Am   D       G  Am D
    visita nuestro bar.
    
    
    
  • INTRO: G#-deslizar-A D E
    
    A
    Yo no se,=20
          D      E         A          D E
    si estas muy pedo o lo vas a estar.
    A
    Solo se
           D     E       A   D E
    que estas en nuestro bar.
    
    
    A
    Hoy es viernes
          D    E     A           D       E     =20
    las chicas mas bonitas te vas a encontrar.
           A
    No lo pienses mas
       D   E       A  D E
    visita nuestro bar.
    
  • e|-4/5---5--5--7--7--7--7-|-4/5---5--5--7--7--7--7-|
    B|-4/5---5--5--7--7--9--9-|-4/5---5--5--7--7--9--9-|
    G|-5/6---6--6--7--7--9--9-|-5/6---6--6--7--7--9--9-|
    D|-6/7---7--7--9--9--9--9-|-6/7---7--7--9--9--9--9-|
    A|-6/7--------------------|-6/7--------------------|
    E|-4/5--------------------|-4/5--------------------|
    
    e|-----------------------------------------------------------|
    B|----------5--5--5----5--5--5-----------5--5----------------|
    G|-------6----------------------6--7--7--------6-------------|
    D|----7-------------------------------------------7----------|
    A|-7-------------------------------------------------7--9--7-|
    E|-----------------------------------------------------------|
    
    (Riff 1)
    
    A
    Yo no se
    
        Bm         E
    
  • bueno es lo del intro pero se oye suave aqui va:
    
    e-------------------------
    B-------------------------
    G-------------------------
    D-----------------------3-
    A--/1-------1-1h3-3-1-----
    E-----3-1-3-----------1---
    
    
    
    e--------------------------
    B--------------------------
    G--------------------------
    D------------------------3-
    A--0h1-------1-1h3-3-1-----
    E------3-1-3-----------1---
    
    
    
    bueno aqui esta el bajeo del intro que es lo mas 
    principal por que se repite casi toda la cancion.
    si tienen dudas o aclaraciones escribanme a:
    has.ramiro@atame.org
    
    gracias
  • +
    ¡Colabora con nosotros!
    Envíanos tu versión de esta canción

Letra de Visite Nuestro Bar
Yo no se,
si estas muy pedo o lo vas a estar.
que estas en nuestro bar.
Hoy es viernes
las chicas mas bonitas te vas a encontrar.
No lo pienses mas
visita nuestro bar.
Dos litros de cerveza por las esquinas
y las canciones que cantan otdas la ni~as
tomate otro juguito de pi~a
y echale un poquito de ron.
Que te pasa estas borracho,
estas en nuestro bar.
En nuestro bar
la musica es dista que en otro bar.
Y no quiero ni hablar
de las ni~as que te puedes ligar.
En este bar
todos somos amigos de verdad.
No lo pienses mas,
visita nuestro bar.
La playa esta lejos y no hay arena
y esta noche saldran las estrellas
con una mano tuya y otra una botella
que mas puedo pedir.
No hay mejor bar en el barrio
estas en nuestro bar.
Bar, visite nuestro bar...




[Visite Nuestro Bar chords][Visite Nuestro Bar cifra]
© LaCuerda.net · aviso legal · privacidad · es · en · pt · contacto