Acordes de Guitarra » H »Hombres G » Nassau (Tab)

Nassau
Hombres G

Letras, Acordes y Tabs para Guitarra, Bajo y Ukulele

  • E ----------------------------------------------------------------------
    B ----------------------------------------------------------------------
    G ----------------------------------------------------------------------
    D ----------------------------------------------------------------------
    A --5-5---5-5----0---5--7/9--7--5---------------------------------------
    E -----------------------------------5---7-7--7-7---5--7--5-------------
    
    
    
    Parto un coco y por dentro está...
    G Em C A
      
    E ---------------------------------------------------------------------
    B ---------------------------------------------------------------------
    G ---------------------------------------------------------------------
    D ---------------------------------------------------------------------
    A --------------------------------3-3-3-3-3-3-3-3--0-0-0-0-0-0-0-------
    E ----3-3-3-3-3-3--0-0-0-0-0-0-0---------------------------------------
    
    Tablatura de George Tobia
    
  • MI SOL#m LA SI (4 veces) + DO#mm SI LA SI
    
    
    
    MI                DO#m
     Nassau, son las doce de la noche
    MI                       DO#m
     le quito la capota y enciendo el coche
     LA                  FA#m
     hace años que no llueve en las Bahamas,
     LA              SI
     precisamente hoy le ha dado la gana.
     MI              DO#m
     Nassau, es la una menos diez
     MI                   DO#m
     le pongo la capota y deja de llover
     LA                    FA#m
     parto un coco y por dentro esta podrido
      LA               SI            MI
     que hare yo aqui, para que habré venido.
    
  • E
    
    
                               E
    e|-----------------------|---|
    b|----9--------------9---|---|
    g|------9-11------11---9-|-9-|
    d|-/9-------9---9--------|-9-|
    a|-----------------------|-7-|
    E|-----------------------|---|
    
       E G#5 A#5 B#5
    e|---------------|
    b|---------------|
    g|-1-------------|
    d|-2--6---7---9--| x2
    a|-2--6---7---9--|
    E|----4---5---7--|
    
    
    
  • E|-14--------------------14--------------------|
    B|----15-17-----------17----15-----------------|
    G|----------14-----14--------------------------|
    D|---------------------------------------------|
    A|---------------------------------------------|
    E|---------------------------------------------|
    
    
          D          D             G          G
    E|---------------------------------------------|
    B|---------------------------------------------|
    G|---------------------------------------------|
    D|---------------------------------------------|
    A|-5-5-5-5-5---5-5-5-5-------------------------|
    E|-------------------------3-3-3-3-3---3-3-3-3-|
    
               Nassau, son las doce de la noche
    
        le quito la capota y enciendo el coche
    
    
  • E|-14--------------------14----|
    B|----15-17-----------17----15-|
    G|----------14-----14----------|
    D|-----------------------------|
    A|-----------------------------|
    E|-----------------------------|  
                                
       D                              G
       p.m ------------------------------------------------------|
    E|------------------------------|------------------------------| X2
    B|------------------------------|------------------------------|
    G|------------------------------|------------------------------|GUIT 1
    D|-0-0-2-0-2-4--0---0-2-0-2-4-2-|-0-0-2-0-2-4--0---0-2-0-2-4-2-|  
    A|------------------------------|------------------------------|
    E|------------------------------|------------------------------|
      *p.m: muteado tapando ligeramente las cuerdas
    
    
    D                 G
      Nassau, son las doce de la noche
    
  • G|---------------------------------------------|
    D|---------------------------------------------|
    A|-5-5-5-5-5---5-5-5-5-------------------------|
    E|-------------------------3-3-3-3-3---3-3-3-3-|
    
    G|---------------------------------------------|
    D|---------------------------------------------|
    A|---------------------------------------------|
    E|-7-7-7-7-7---7-7-7-7-----0-0-0-0-0---0-0-0-0-|
    
    G|-----------------------------------------------|
    D|-----------------------------------------------|
    A|-----------------------------------------------|
    E|-3-3-3-3-3---3-3-3-3-----5-5-5-5-5---5-5-5/7-5-|
    
    Uno toca lo primero una vez, y el verso es toda esta
    tablatura, y es todo lo que me sé.
    
    Dedicado a mis amigos rockeros, a mis amigas fans de
    hombres G, y a Sofía Garfias (aunque no creo que
    alguno de ellos se tome la molestia de ver esta tab).
  • Hola que tal esta es mi primera transcripcion en la bateria.
    Se la dedico a mi grupo 'Contra la Pared' (Charlo-MoI-PaSTeL-UniD)
    VIVA EL PERU!!!!!!!!!!!!
    Van a perdonarme si no esta 100% correcto pero
    soy nuevo en la bateria....
    Ahora si...
    
    Intro: (Despues de la guitarra)
    
    
    H-xxxxxxxxxxxxxxxxxxxxxxxxxxxxxxxxxxxxxxxxx
    T------------------------------------------
    B-o-oo-------o-oo--------o-oo-----o-oo-----
    
    
    Nassau, son las 12.........
    
    H-xxxxxxxxxxxxxxxxxxxxxxxxxxxxxxxxxxxxxxxxxxx
    T-r------r--------r-------r------r-----------
    B--o-oo---o-oo-----o-oo----o-oo---o-oo-------
    
    Hace años que.......
    
    H-xxxxxxxxxxxxxxxxxxxxxxxxxxxxxxxxxxxxxxxxxxxxxxxxxxxx
    T-------------r-------------r-------------r-----------
    B-o-oo--o-oo----o-oo--o-oo----o-oo--o-oo----o-oo--o-oo
    
    
    Nassau, son la una......
    
    H-xxxxxxxxxxxxxxxxxxxxxxxxxxxxxxxxxxxxxxxxxxxxxxxxxxxxxx
    T-X-----X------X-----X------X------X------X------X------
    B--o-oo--o-oo---o-oo--o-oo---o-oo---o-oo---o-oo---o-oo--
    
    
    
  • +
    ¡Colabora con nosotros!
    Envíanos tu versión de esta canción

Letra de Nassau
Parto un coco y por dentro está...

Tablatura de George Tobia
(geotobia@yahoo.com)
Nassau, son las doce de la noche
le quito la capota y enciendo el coche
hace a~os que no llueve en las Bahamas,
precisamente hoy le ha dado la gana.
Nassau, es la una menos diez
le pongo la capota y deja de llover
parto un coco y por dentro esta podrido
que hare yo aqui, para que habre venido.
Esta ma~ana, me ha dejado
mi novia hawaiana, y yo me pregunto
que co~o hare yo en las Bahamas.
Se me jode el coche, me deja mi novia,
me mareo cuando subo a la noria
no estoy moreno estoy quemado
y los mosquitos me han destrozado, uoh, uoh, oh.
Tengo la espalda, como el culo de un mandril
la chica del anuncio no esta por aqui
mucho rollo con los limones del Caribe
y luego llegas y de milagro sobrevives.
Con lo bien que estaba yo en Madrid
con mi zumo de pi~a, y mi casita gris
mi chalecito, en Navacerrada
todo el tiempo libre, nunca hay que hacer nada.
Esta ma~ana...
Para regresar al indice de Hombres G Pulsa Aqui
Para regresar al Menu PrincipalPulsa Aqui




[Nassau chords][Nassau cifra]
© LaCuerda.net · aviso legal · privacidad · es · en · pt · contacto